Guitar Tabs, Chords and Lyrics


Shade   Silverchair



Song-Shade
Band-silverchair
Album-Frogstomp
tabbed by Mike Stramaglio (RYZA36A@prodigy.com)...this is the book's
translation which seems to be right...i compared it to a video i have
of silverchair live and all the chords seem ok...

*TUNING*
standard (EADGBE)

--KEY--

INTRO
E|-5-5--3---3-----3---3-0-0-0--0----0-|
G|-6-6--3---3-0-0-1---1-0-0-1--1/3--3-|
B|-7-7--5---5-0-0-0---0-0-0-2--2/4--4-|
D|-7-7--5---5-0-0-2---2-----3--3/5--5-|
A|-5-5--3---3-----0---0-----0---------|
E|------------------------------------|

E|-----5----------3-----3-------3---3--0-0--0---0---0-------|
G|-5h6------------3-----3--0-0--1---1--0-0--1---1/3-3--0--0-|
B|-5h7---7-----0--5-----5--0-0--0---0--0-0--2---2/4-4--0--0-|
D|-5h7-----7---0--5-----5-------2---2-------3---3/5-5--0--0-|
A|-5--------------3-----3-------0---0-------0---------------|
E|----------------------------------------------------------|

E|-5----5------3---3-------3--3--0-0--0---0---0-------|
G|-5h6--6------3---3--0-0--1--1--0-0--1---1/3-3--0--0-|
B|-5h7--7--0-0-5---5--0-0--0--0--0-0--2---2/4-4--0--0-|
D|-5h7--7--0-0-5---5-------2--2-------3---3/5-5--0--0-|
A|-5-----------3---3-------0--0-------0---------------|
E|----------------------------------------------------|

E|-5----5--x-x-3----3-------3-----------x-x-|
G|-5h6--6--x-x-3----3--0-0--1-----------x-x-|
B|-5h7--7--x-x-5----5--0-0--0-----------x-x-|
D|-5h7--7--x-x-5----5-------2-----2---------|
A|-5-----------3----3-------0---0---0-3-----|
E|------------------------------------------|

VERSE
E|-5--5---3---3---3--3-------1--1------3-|
G|-6--6---3---3---1--1-------1--1------0-|
B|-7--7---5---5---0--0--0-0--3--3---x--0-|
D|-7--7---5---5---2--2--0-0--3--3---x--0-|
A|-5--5---3---3---0--0-------1--1------x-|
E|-------------------------------------3-|

BEFORE CHORUS PLAY THIS
E|----------|
G|----------|
B|----------|
D|----------|
A|-0--3-0-5-|
E|----------|

CHORUS
E|-5---5-x-x-1---1--x-x--3---3-x-x-3---3-3---------|
G|-6---6-x-x-1---1--x-x--3---3-x-x-3---3-3---------|
B|-7---7-x-x-2---2--x-x--5---5-x-x-4---4-4---------|
D|-7---7-x-x-3---3--x-x--5---5-x-x-5---5-5---------|
A|-5---5-x-x-3---3--x-x--3---3-x-x-5---5-5-----3/5-|
E|-----------1---1--x-x------------3---3-3-3h5-----|

SOLO
E|------------------------------------------|
G|------------------------------------------|
B|-------10---------------------------------|
D|-10h12-----12--12-----------10------------|
A|----------------------10h12---------------|
E|--------------------------------10h12--10-|

E|---------------------------------------|
G|---------------------------------------|
B|---------------------------10----------|
D|-------12\--------10-10h12----12p10----|
A|----12-------8/12-------------------12-|
E|-13------------------------------------|

            ~~~~~~~
E|---------------------------------------------------------------|
G|---------------------------------------------------------------|
B|-----10/9-9--------9-9/7-7---7---7----7/9-9/10--9-10-10/12--10-|
D|-10------------------------------------------------------------|
A|---------------------------------------------------------------|
E|---------------------------------------------------------------|

E|-------------------------------------------|
G|-------------------------------10h11p10----|
B|-------10----------------10h12----------12-|
D|-10h12----12-------12----------------------|
A|-------------10h12-------------------------|
E|-------------------------------------------|

E|----------------------------------------------------|
G|----------------------------------------------------|
B|-10/9-9---9h10-10h12--10h12-------------------------|
D|----------------------------10--------10--------10\-|
A|--------------------------------10h12---------------|
E|----------------------------------------------------|

INTERLUDE
E|------5--3---------------x-x--5--5-----3---3--3-3-3--3--3-3---------|
G|------6--3---------------x-x--6--6-----3---3--3-3-3--3--3-3---------|
B|------7--5---------------x-x--7--7-0-0-5---5--5-5-5--4--4-4---------|
D|---7-----5------2--------x-x--7--7-0-0-5---5--5-5-5--5--5-5---------|
A|-5-------3----3---0--3/-------5--5-----3---3--3-3-3--5--5-5-----3h5-|
E|-----------------------------------------------------3--3-3-3h5-----|

OUTRO--Play chorus and after Daniel says "Hidin', Hidin'"
hit distortion.  The guitar track is doubled with a second guitar
playing just the power chords of the chorus.



Important: The song above is NOT stored on the Chordie server. The original song is hosted at www.xguitar.com. Chordie works as a search engine and provides on-the-fly formatting. Chordie does not index songs against artists/composers will. To remove this song please click here.

This song is displayed as text-only. Transposing and tuning is only available for chordpro-songs.

Login - add to songbook

Rating click stars to rate

Layout
Accuracy

SHARE PAGE  




You need to log in to post comments