"yes"; ?> So Long, Frank Lloyd Wright by Simon & Garfunkel - guitar chords, guitar tabs and lyrics - chordie

So Long, Frank Lloyd Wright

Simon & Garfunkel

 4/4
 Esus4BdimE7C7D7
|------------------|------------------|------------0-----|--0-------2-------|
|------------------|--4-----4-4-4-4-0-|--3-3---3---------|--------------1---|
|------------------|--4-----4-4-4-4-0-|--1-1---1-----1---|----3---0---2---2-|
|------------------|--6-----6-6-6-6---|--3-3---3-------0-|------2---0-------|
|------------------|------------------|--2---2-----------|--3---------------|
|--------------0---|------------0-----|------------------|------------------|

^ ^ ^ ^ ^ ^ ^ ^ ^ ^ ^ ^ ^ ^ ^ ^
So long Frank Lloyd

 EmB7EmGCmaj7
|--------0---------|------------------|--0-----3---------|--0---------------|
|----0-------0-----|--0-0-0-0-------0-|--0-----0---0-----|----------0-------|
|--------------0---|--2-2-2-2-----2---|--0-----0-----2---|--------0-------0-|
|------2---------0-|--1-1-1-1-1-------|----------------0-|------2-------2---|
|------------------|--2---2-----------|--2---------------|--3-------3-------|
|--3---------------|------------------|------3-----------|------------------|

^ ^ ^ ^ ^ ^ ^ ^ ^ ^ ^ ^ ^ ^ ^ ^
Wright I can't believe.. is gone so soon

 GAm
|--0---------0-----|------------0-----|------------------|------0-----------|
|----0-----0-------|----------4-------|----0-------0-----|------1-1-1-1-----|
|--------0-----0---|--------0---------|--3-----3-------0-|------2-2-2-2-0---|
|------2-----------|------------------|------0-------0---|------2-2-2-2---0-|
|--3-------------2-|--3---3-----------|------------------|--0---------------|
|------------------|----------------3-|--3-------3-------|------------------|

^ ^ ^ ^ ^ ^ ^ ^ ^ ^ ^ ^ ^ ^ ^ ^
I barely learned the tune so soon

 Fmaj7FB7E
|--------0---------|------------------|------------------|------0-0-0-0-----|
|------1-----1-----|------1-1-1-1-----|--------4---4-----|------0-0-0-0-----|
|----2---------2---|------2-2-2-2-----|------2-------2---|------1-1-1-1-0---|
|--3-------------3-|------3-3-3-3---3-|----4-----------4-|----------------0-|
|------------------|------------------|------------------|------------------|
|------------------|--1---1---1---1---|--2-------2-------|--0---------------|

^ ^ ^ ^ ^ ^ ^ ^ ^ ^ ^ ^ ^ ^ ^ ^
           so soon                               I'll re----mem-----ber


 BdimC7D7Em/GB7
|------------0-----|--0-------2-------|--------0---------|------------------|
|----3---3---------|--------------1---|----0-------0-----|--0-0-0-0-------0-|
|----1---1-----1---|----3---0---2--(0)|--------------0---|--2-2-2-2-----2---|
|----3---3-------0-|------2---0-------|------2---------0-|--1-1-1-1-1-------|
|--2---2-----------|--3---------------|------------------|--2---------------|
|------------------|------------------|--3---------------|------------------|

^ ^ ^ ^ ^ ^ ^ ^ ^ ^ ^ ^ ^ ^ ^ ^
Frank Lloyd Wright All of the nights

 EmGC7
|--0-----3---------|--0---------------|--0-----------0---|----0-------0-----|
|--0-----0---0-----|----------0-------|----0-------0-----|--4-----4-----4---|
|--0-----0-----2---|--------0---0---0-|--------2-------0-|----------------0-|
|----------------0-|------2-------2---|-----(0)----------|------------------|
|--2---------------|--3-------3-------|--3---------------|--3---3---3-------|
|------3-----------|------------------|------------------|------------------|

^ ^ ^ ^ ^ ^ ^ ^ ^ ^ ^ ^ ^ ^ ^ ^
harmonize till dawn I never laughed so

G? Am Ab G
|------------------|------------------|------------------|------------------|
|----0-------0-----|--1-----1---1-1-1-|--1---1-----1---1-|--0-----0---0-----|
|--3-----3-------0-|--2-----2---2-2-2-|----4-----4-------|--0-----0---0-----|
|------0-------0---|--2-----2---2-2-2-|------------------|--0-----0---0-----|
|------------------|--0---0---0-------|------------------|------------------|
|--3-------3-------|------------------|--4-----4-----4---|--3---3-----3-----|

^ ^ ^ ^ ^ ^ ^ ^ ^ ^ ^ ^ ^ ^ ^ ^
long so long so long

G7 Am7 G? C7
|----0-1---1---1---|------------------|------------------|------------------|
|----0-0---0---0---|--1-1-1-1-1-1---0-|----0-0-0-0-0---1-|----1-1-1-----1---|
|--0---0---0---0---|--0-0-0-0-0-0---3-|----3-3-3-3-3---3-|----3-3-3---3-----|
|--------------0---|--2-2-2-2-2-2---0-|----0-0-0-0-0---2-|----2-2-2---------|
|------------------|--0---0---0-------|----------------3-|----3-3-3---------|
|--3---3---3-------|----------------3-|----3-3-3-3-3-----|----------3-------|

^ ^ ^ ^ ^ ^ ^ ^ ^ ^ ^ ^ ^ ^ ^ ^
Architects may come and Architects may go and never...

* *
G? Gm7 Fm7 Cm7/5 Bm7/5 C7
|------------0-----|--3-3-3---1-1-----|------------------|------1-----------|
|--------0-----0---|--3-3-3---1-1---4-|----4---4-3-------|----2---------3-1-|
|----3-------------|--3-3-3-3-1-1-3-3-|----3---3-2-------|--------0---0---3-|
|------0---------0-|--3-------1-1---4-|----4---4-3-----0-|--3-------0-----2-|
|------------------|----------------3-|----3---3-2-------|----------------3-|
|--3-------3-------|------------------|------------------|------------------|

^ ^ ^ ^ ^ ^ ^ ^ ^ ^ ^ ^ ^ ^ ^ ^
When I run dry I stop awhile and

Instrumental I (see notes)
|------------------|------------------||
|----Sustain C7----|------------------||
|----for a beat----|------------------||
|------------------|------------------||
|------------------|------------------||
|------------------|------------------||

^ ^ ^ ^ ^ ^ ^ ^

G7 Am7 G? C7
|------------------|------------------|------------------|------------0-----|
|--1-1-1-1-1-1---0-|----0-0-0-0-0---1-|----1-1-1-----1---|--------0-----0---|
|--0-0-0-0-0-0---3-|----3-3-3-3-3---3-|----3-3-3---3-----|----3-------------|
|--2-2-2-2-2-2---0-|----0-0-0-0-0---2-|----2-2-2---------|------0---------0-|
|--0---0---0-------|----------------3-|----3-3-3---------|------------------|
|----------------3-|----3-3-3-3-3-----|----------3-------|--3-------3-------|

^ ^ ^ ^ ^ ^ ^ ^ ^ ^ ^ ^ ^ ^ ^ ^
Architects may come and Architects may go and never...

Then comes Instrumental II for 4 bars (see notes)
  -------------------------------------------------


Capo 0
 Esus4BdimE7C7D7
|------------------|------------0-----|--0-------2-------|
|--4-----4-4-4-4---|--3-3---3---------|--------------1---|
|--4-----4-4-4-4---|--1-1---1-----1---|----3---0---2---0-|
|--6-----6-6-6-6---|--3-3---3-------0-|------2---0-------|
|------------------|--2---2-----------|--3---------------|
|------------------|------------------|------------------|

^ ^ ^ ^ ^ ^ ^ ^ ^ ^ ^ ^
So long Frank Lloyd

 EmB7EmGCmaj7
|--------0---------|------------------|--0-----3---------|--0---------------|
|----0-------0-----|--0-0-0-0-------0-|--0-----0---0-----|----------0-------|
|--------------0---|--2-2-2-2-----2---|--0-----0-----2---|--------0-------0-|
|------2---------0-|--1-1-1-1-1-------|----------------0-|------2-------2---|
|------------------|--2---2-----------|--2---------------|--3-------3-------|
|--3---------------|------------------|------3-----------|------------------|

^ ^ ^ ^ ^ ^ ^ ^ ^ ^ ^ ^ ^ ^ ^ ^
Wright All of the nights we'd harmonize till dawn....

hammer/pulloff (C) (G) Am Ab
|------------------|----0-------0-----|------------------||------------------|
|--010-------------|--4-----4-----4---|----0-------0-----||--1---1-1-1-----1-|
|-----0--0---------|----------------0-|--3-----3-------0-||.-2---2-2-2-----1-|
|------2-----------|------------------|------0-------0---||.-2---2-2-2-----1-|
|--3---------------|--3---3---3-------|------------------||------------------|
|------------------|------------------|--3-------3-------||------------------|

^ ^ ^ ^ ^ ^ ^ ^ ^ ^ ^ ^ ^ ^ ^ ^
I never laughed so long So long

 GAbAAb
|------------------|------------------|------------------|------------------|
|----1---1-1---1---|--0-----0-0-0---0-|----0---0-0---1---|--2-----2-2-2---1-|
|----1---1-1---1---|--0-----0-0-0---0-|----0---0-0---1---|--2-----2-2-2---1-|
|----1---1-1---1---|--0-----0-0-0---0-|----0---0-0---1---|--2-----2-2-2---1-|
|------------------|------------------|------------------|------------------|
|------------------|------------------|------------------|------------------|

^ ^ ^ ^ ^ ^ ^ ^ ^ ^ ^ ^ ^ ^ ^ ^
So long

 GG6G7GC
|------------------|------------------|------------------||
|----1---1-1---1---|--0-----0-0-0---0-|----0---0-0---0---||
|----1---1-1---1---|--0-----0-0-0---0-|----0---0-0---0--.||  Repeat and fade
|----1---1-1---1---|--0-----0-0-0---0-|----0---0-0---0--.||
|------------------|------------------|------------------||
|------------------|------------------|------------------||

^ ^ ^ ^ ^ ^ ^ ^ ^ ^ ^ ^

Verse1

So long Frank Lloyd Wright
I can't believe your song is gone so soon
I barely learned the tune so soon
So soon

Verse2

I'll remember Frank Lloyd Wright
All of the nights we'd harmonize till dawn
I never laughed so long
So long, So long

Chorus

Architects may come and architects may go
and never change your point of view
When I run dry I stop a while and think of you

(then first two lines of chorus and verse2)

Notes:

Instrumental I
--------------


Paul Simon plays underneath the flute from the beginning up to the first Ab,
then he skips somewhere and I'm not sure where, you'll have to work it out
yourself...

Instrumental II
---------------


He plays from the Gm7 to C7 (marked by stars)

************************************************************************
* Rich Kent; email r.p.kent@dur.ac.uk ; http://www.dur.ac.uk/~d213ga *
************************************************************************


A Ab Am B7 Bdim C C7 Cmaj7 D7 E E7 Em Esus4 F Fmaj7 G G6 G7
variations - click chord images
Transpose chords:
Tuning:
Cool service:
View: Size:
A  A  A
Rating:
Layout:
  • Currently 2/5 Stars.
  • 1
  • 2
  • 3
  • 4
  • 5
 
Accuracy:
  • Currently 2.5/5 Stars.
  • 1
  • 2
  • 3
  • 4
  • 5
 
click stars to rate
Chordie recommends:
Learn how to play guitar at JamPlay.com
Songbook:
Login to add this song to your songbook
Support the artist
Preview/buy this song
MSN Music
Why this non-profit ad?

 
login to add comments/video/corrections