Guitar Tabs, Chords and Lyrics


Mrs. Robinson    Simon & Garfunkel



There are no acual tabs of this song i
i will make one

>>>> means keep that chord going for all the words under it

E|-2------------------------------------|
A|-3-->>>>>>>>>-------------------------|
D|-2------------------------------------|
G|--------------------------------------|
B|--------------------------------------|
E|--------------------------------------|
          and heres to
E|-----0--------------------------------|
A|-----3--------------------------------|
D|-----0--------------------------------|
G|-----0--------------------------------|
B|-----2--------------------------------|
E|-----3--------------------------------|
            you
E|--------------------------------------|
A|--------------------------------------|
D|--------------------------------------|
G|------2-------------------------------|
B|------2-->>>>>>>----------------------|
E|------0-------------------------------|
        Mrs. robinson
E|------0-------------------------------|
A|------3-------------------------------|
D|------0-------------------------------|
G|------0->>>>>-------------------------|
B|------2-------------------------------|
E|------3-------------------------------|
  Jesus Loves you
E|--------------------------------------|
A|--------------------------------------|
D|--------------------------------------|
G|-------2------------------------------|
B|-------2-->>>>>>>>--------------------|
E|-------0------------------------------|
     more than you will
E|---------0----------------------------|
A|---------1----------------------------|
D|---------0----------------------------|
G|---------2----------------------------|
B|---------3----------------------------|
E|---------0----------------------------|
               know
E|------0-------------------------------|
A|------3-------------------------------|
D|------2-------------------------------|
G|------2>>>>>>>------------------------|
B|------0-------------------------------|
E|------0-------------------------------|
           wo,wo,wo
E|-----------2--------------------------|
A|-----------3--------------------------|
D|-----------2--------------------------|
G|-----------0--------------------------|
B|-----------0--------------------------|
E|-----------0--------------------------|
          god bless you
E|------------0-------------------------|
A|------------3-------------------------|
D|------------0-------------------------|
G|------------0-------------------------|
B|------------2-------------------------|
E|------------3-------------------------|
         please
E|-------------0------------------------|
A|-------------0------------------------|
D|-------------0------------------------|
G|-------------2------------------------|
B|-------------2------------------------|
E|-------------0------------------------|
        Mrs. robinson
E|------------0-------------------------|
A|------------3-------------------------|
D|------------0-------------------------|
G|------------0-------------------------|
B|------------2-------------------------|
E|------------3-------------------------|
         heaven holds a
E|------------0-------------------------|
A|------------0-------------------------|
D|------------0-------------------------|
G|------------2-------------------------|
B|------------2-------------------------|
E|------------0-------------------------|
       place for those who
E|-------------0------------------------|
A|-------------1------------------------|
D|-------------0------------------------|
G|-------------2------------------------|
B|-------------3------------------------|
E|-------------0------------------------|
               pray
E|--------------0-----------------------|
A|--------------3-----------------------|
D|--------------2-----------------------|
G|--------------2-----------------------|
B|--------------0-----------------------|
E|--------------0-----------------------|


Important: The song above is NOT stored on the Chordie server. The original song is hosted at www.xguitar.com. Chordie works as a search engine and provides on-the-fly formatting. Chordie does not index songs against artists'/composers' will. To remove this song please click here.

This song is displayed as text-only. Transposing and tuning is only available for chordpro-songs.

Login - add to songbook

Rating click stars to rate

Layout
Accuracy

SHARE PAGE  




You need to log in to post comments