Guitar Tabs, Chords and Lyrics


Homeward Bound   Simon & Garfunkel

e|------------------------------


B|-0-0h1p0----------------------


G|-0-0h2p0--2-0---0-0-0--0------

D|----------3-2-2-0h2-0--0------
A|--------------3---------------
E|-----------------------3------
e|------------------------
B|------------------------
G|------------------------
D|---0---0---0---0--------
A|------------------------
E|-3---3---3---3----------
e|------------------------
B|------------------------
G|------------------------
D|---0---0---0---0--------
A|------------------------
E|-2---2---2---2----------
e|------------------------
B|------------------------
G|------------------------
D|---0---0---0---0--------
A|------------------------
E|-1----1---1---1---------
e|------------------------ -------------
B|------------------------ -------------
G|------------------------ -------------
D|---2---2---2---2-------- -------------
A|------------------------ --0-2-3-2-0--
E|-0---0---0---0---------- ------------3
e|-------------0-----------------1------
B|0h1-----1------1---1-------------1---
G|---2-------2-----2---2---2--2------2---
D|-----2---2-------------3---3---------
A|-0-------------------3-------------
E|-------------------1-----------------
e|-----------3---------------
B|--0-----0----0---0---------
G|----0----------0-----------
D|------0--------------------
A|--2----------------2-2-2---
E|-------------------3-3-3----
Homew[G]ard bo[C]und
, G
I wish I was,
Home[G]ward bo[C]und
Home [G]where my tho[F]ught's esca[C]ping,
Home w[G]here my m[F]usic's playin[C]g,
Home whe[G]re my love lies wai[F]ting
Silentl[D]y for m[G]e.

Verse:
Ev'ry day's an endless stream
Of cigarettes and magazines.
And each town looks the same to me, the movies and the factories
And ev'ry stranger's face I see reminds me that I long to be,

Chorus:

Homeward bound,
I wish I was,
Homeward bound,
Home where my thought's escaping,
Home where my music's playing,
Home where my love lies waiting
Silently for me.


Verse:

Tonight I'll sing my songs again,
I'll play the game and pretend.
But all my words come back to me in shades of mediocrity
Like emptiness in harmony I need someone to comfort me.

Chorus:

Homeward bound,
I wish I was,
Homeward bound,
Home where my thought's escaping,
Home where my music's playing,
Home where my love lies waiting
Silently for me.
Silently for me.

End is Intro again.

Important: The song above is NOT stored on the Chordie server. The original song is hosted at www.xguitar.com. Chordie works as a search engine and provides on-the-fly formatting. Chordie does not index songs against artists'/composers' will. To remove this song please click here.

Text color:
Chord color:
Chord grids: 
Font size:    
Page size: 

C D F G
variations - click chord images

Login - add to songbook

Transpose chords

Tuning

Rating click stars to rate

Layout
Accuracy

SHARE PAGE  




You need to log in to post comments