eToCache5 = ""; ?> I Am a Rock by Simon & Garfunkel - guitar chords, guitar tabs and lyrics - chordie

I Am a Rock

Simon & Garfunkel

e |---------0h1--0--0h1--0--0h1-0--------0h1--0--0h1--0--0h1-0--------|

B |---------1----1--1----1--1---1--------1----1--1----1--1---1--------|
G |-------------------------------------------------------------------|
D |-------------------------------------------------------------------|
A |-3--3-3------------------------3--3-3-----------------------3--3-3-|
E |-------------------------------------------------------------------|
e |------------------0h1--0--0h1--0--0h1--0---------------------------|
B |------------------1----1--1----1--1----1---------------------------|
G |-------------------------------------------------------------------|
D |-------------------------------------------------------------------|
A |----------3--3-3---------------------------3--3-3----3-------------|
E |-------------------------------------------------------------------|
e |--1--------1--------1----------------0h1--0--0h1--0--0h1--0--------|
B |--1--------1--------1----------------1----1--1----1--1----1--------|
G |--2--------2--------2----------------------------------------------|
D |-------------------------------------------------------------------|
A |-------3---------3-----3-3------3-3--------------------------3--3-3|
E |-------------------------------------------------------------------|

 Dm7Em7
 Gazing from my window,

 Dm7Em7
 To the streets below,

 DmFG
On the freshly fallen, silent shroud of snow.

Chorus:

 FC
 I am a rock,

 FG7
 I am an iiiiiis-

Bridge 1:

 CFCGFGC
e |---0-----0--1--0--\----------------------------0-------------------|
B |---1-x4--1--1--1---}repeat all once---2--1--2--1-------------------|
G |------------------/-------------------0--2--0----------------------|
D |-------------------------------------------------------------------|
A |-------------------------------------------------------------------|
E |-------------------------------------------------------------------|

-land.

To make it really sound like the real thing, strum the first eighth note beat of 'C'
instead of plucking it (but go straight into the next eighth note beat). Use the one
strum beat as one of the four repeated 'C' beats.

If you want to keep going with the rhythm guitar part, instead of plucking, just follow
the chord progression for the chorus and strum it the same as I tabbed it. It doesn't
sound as good that way, but you can if you want to.

For the rest of the verses, don't pluck the strings, follow the chord progression like so:

Verse 2:

C (strum two measures)
I built walls

F C (strum two measures)
A fortress deep and mighty

Dm G7 F C (strum one measure)
That none may penetrate.

 Dm7Em7
have no need of friendship,

 Dm7Em7
 Friendship causes pain.

 DmFG
It's laughter and it's loving I disdain.

Chorus:

Bridge 1:

Verse 3:

Don't talk of love;
But I've heard the word before;
It's sleeping in my memory.
I won't disturb the slumber
Of feelings that have died.
If I never loved I never would have cried.

Chorus:

Bridge 1:

Verse 4:

I have my books
And my poetry to protect me;
I am shielded in my armor,
Hiding in my room,
Safe within my womb.
I touch no on and no one touches me.

Chorus:

Bridge 2:

 CFC
e |---0-----0--1--0-0---|
B |---1-x4--1--1--1-1---|
G |---0-----0--2--0-0---|
D |---------------------|
A |---------------------|
E |---------------------|


Outro:

 Dm7G7C
And a rock feels no pain    (strum two beats on C)

 Dm7G7C
And an island never cries

e |---------0h1--0--0h1--0--0h1-0--------0h1--0--0h1--0--0h1--0-------|
B |---------1----1--1----1--1---1--------1----1--1----1--1----1-------|
G |-------------------------------------------------------------------|
D |-------------------------------------------------------------------|
A |----3-3------------------------3--3-3------------------------3--3-3|
E |-------------------------------------------------------------------|

ª
(keep slowing down until end)

I'm sure this is 100% correct, I hope my notes helped.
Enjoy,
Todd


C Dm Dm7 Em7 F G G7
variations - click chord images
Transpose chords:
Tuning:
Cool service:
View: Size:
A  A  A
Rating:
Layout:
  • Currently 3.1/5 Stars.
  • 1
  • 2
  • 3
  • 4
  • 5
 
Accuracy:
  • Currently 2.9/5 Stars.
  • 1
  • 2
  • 3
  • 4
  • 5
 
click stars to rate
Chordie recommends:
Learn to play songs at Jamplay.com with video guitar lessons
Songbook:
Login to add this song to your songbook
Support the artist
Preview/buy this song
MSN Music
Why this non-profit ad?

 
login to add comments/video/corrections