Guitar Tabs, Chords and Lyrics


I'd Do Anything    Simple Plan



Simple Plan
Id do anything
Standard Tuning
Tabbed by me, revelation1114		

Give me feedback on this, cause im not all that sure about it

Intro

e-----------------------------
B-----------------------------
G-----------------------------  x3
D------3--6----5--8--6----6---
A--4--------6-------------6---
E-------------------------4---
                         P.M.

Ok, i wasnt too sure about the verse, so ive included two versions. Pick your favorite.

Verse (possibility one)

e---------------------------------------------------------
B---------------------------------------------------------
G---------------------------------------------------------    x4
D--6--5--6-----6--5--6-----6--5--6-------3--6----5--8--6--
A-----------4-----------6-------------4--------6----------
E---------------------------------------------------------

Verse (possibility two)

e------------------------------------------------------------
B------------------------------------------------------------
G-------------------------------------6----------------------    x4
D--6--5--6---6--5--6--6--6---5--6--6--6-----3--6--5--8--6----
A------------------------6------------4---4-----------6------
E------------------------4-----------------------------------



Prechorus

Im probably wrong on this, but i think its this

G---------------6-6-----
D-6--6--6--6----6-6----
A---------------4-4-----
E---------------------

Beats are probably off too



chorus


e----------------------------------------
B----------------------------------------
G-------------------------------6-6-6-6--
D--6-6-6-6---5-5-5-5---3-3-3-3--6-6-6-6--
A--6-6-6-6---5-5-5-5---3-3-3-3--4-4-4-4--
E--4-4-4-4---3-3-3-3---1-1-1-1-----------



On the outro thing, your guess is as good as mine



Important: The song above is NOT stored on the Chordie server. The original song is hosted at www.xguitar.com. Chordie works as a search engine and provides on-the-fly formatting. Chordie does not index songs against artists/composers will. To remove this song please click here.

This song is displayed as text-only. Transposing and tuning is only available for chordpro-songs.

Login - add to songbook

Rating click stars to rate

Layout
Accuracy

SHARE PAGE  




You need to log in to post comments