Chordie logo

Perfect    Simple Plan



Band: Simple Plan
Song: Perfect
Tabbed by: John Heward

please rate this!

Tuning (low to high): Eb Ab Db Gb Bb Eb

Intro: Clean
Eb|--------------------------------------------------------------------------|
Bb|--------------------------------------------------------------------------|
Gb|---9---8---9/---2---1--------9---8----11/---13/---2---1-------------------|
Db|---9---9---9/---2---2---2/---9---9----------------2---2---2---------------|
Ab|---7---7---7/---0---0--------7---7----------------0---0-------------------|
Eb|--------------------------------------------------------------------------|

Pre Verse: Distortion
Eb|---------------------------------------------------------------------------
Bb|---------------------------------------------------------------------------
Gb|---9--9--9--9--11--11--11--11--14--14--14--14--13--14----------------------
Db|---x--x--x--x--x---x---x---x---x---x---x---x---x---x-----------------------
Ab|---7--7--7--7--9---9---9---9---12--12--12--12--11--12----------------------
Eb|---------------------------------------------------------------------------

Eb|---------------------------------------------------------------------------
Bb|---------------------------------------------------------------------------
Gb|---9--9--9--9--11--11--11--11--14--14--14--14--13--14----------------------
Db|---x--x--x--x--x---x---x---x---x---x---x---x---x---x-----------------------
Ab|---7--7--7--7--9---9---9---9---12--12--12--12--11--12----------------------
Eb|---------------------------------------------------------------------------

Eb|---------------------------------------------------------------------------
Bb|---------------------------------------------------------------------------
Gb|---9--9--9--9--11--11--11--11--14--14--14--14--13--14----------------------
Db|---x--x--x--x--x---x---x---x---x---x---x---x---x---x-----------------------
Ab|---7--7--7--7--9---9---9---9---12--12--12--12--11--12----------------------
Eb|---------------------------------------------------------------------------

Eb|--------------------------------------------------------------------------|
Bb|--------------------------------------------------------------------------|
Gb|---9--9--9--9--11--11--11--11--14--14--14--14--14--14--16--14--13---------|
Db|---x--x--x--x--x---x---x---x---x---x---x---x---x---x---x---x---x----2-----|
Ab|---7--7--7--7--9---9---9---9---12--12--12--12--12--12--14--12--11---2-----|
Eb|--------------------------------------------------------------------0-----|

Verse: Clean
Eb|---------------------------------------------------------------------------
Bb|---------------------------------------------------------------------------
Gb|---9---8---9/---2---1--------9---8----11/---13/---2---1--------------------
Db|---9---9---9/---2---2---2/---9---9----------------2---2-------6--4--6------
Ab|---7---7---7/---0---0--------7---7----------------0---0--------------------
Eb|---------------------------------------------------------------------------

Eb|--------------------------------------------------------------------------|
Bb|--------------------------------------------------------------------------|
Gb|---9---8---9/---2---1---4------9---8---9---9--8---9-----------------------|
Db|---9---9---9/---2---2----------9---9---9---9--9---9-----------------------|
Ab|---7---7---7/---0---0----------7---7---7---7--7---7-----------------------|
Eb|--------------------------------------------------------------------------|

Pre Chorus: Light Distortin
Eb|----------0------------0------------0---0--0--0--0--0--0--0--0--0--0--0----
Bb|----------0------------0------------0---0--0--0--0--0--0--0--0--0--0--0----
Gb|-----------------------6------------9---9--9--9--9--9--9--9--9--9--9--9----
Db|-------4------------7------------9------9--9--9--9--9--9--9--9--9--9--9----
Ab|-----4-----------7------------7---------7--7--7--7--7--7--7--7--7--7--7----
Eb|---2----------5------------0-----------------------------------------------

Eb|----------0------------0------------0--------------------------------------|
Bb|----------0------------0------------0--------------------------------------|
Gb|-----------------------6-----------9---------------------------------------|
Db|-------4------------7------------9-----7--7--7--7--7--7--7--7--2~~---------|
Ab|-----4-----------7------------7--------7--7--7--7--7--7--7--7--2~~---------|
Eb|---2----------5------------0-----------5--5--5--5--5--5--5--5--0~~~--------|

Chorus: Clean
Eb|---------------------------------------------------------------------------|
Bb|---------------------------------------------------------------------------|
Gb|---9---------------9-8-------8-9------9-8---9----------9-8------9-8--------|
Db|---9----------------------------------------9------------------------------|
Ab|---7-----------9---------11--------9--------7------9---------9--------9----|
Eb|---------------7---------9---------7---------------7---------7--------7----|

Pre Verse: Distortion
Eb|---------------------------------------------------------------------------
Bb|---------------------------------------------------------------------------
Gb|---9--9--9--9--11--11--11--11--14--14--14--14--13--14----------------------
Db|---x--x--x--x--x---x---x---x---x---x---x---x---x---x-----------------------
Ab|---7--7--7--7--9---9---9---9---12--12--12--12--11--12----------------------
Eb|---------------------------------------------------------------------------

Eb|---------------------------------------------------------------------------
Bb|---------------------------------------------------------------------------
Gb|---9--9--9--9--11--11--11--11--14--14--14--14--13--14----------------------
Db|---x--x--x--x--x---x---x---x---x---x---x---x---x---x-----------------------
Ab|---7--7--7--7--9---9---9---9---12--12--12--12--11--12----------------------
Eb|---------------------------------------------------------------------------

Eb|---------------------------------------------------------------------------
Bb|---------------------------------------------------------------------------
Gb|---9--9--9--9--11--11--11--11--14--14--14--14--13--14----------------------
Db|---x--x--x--x--x---x---x---x---x---x---x---x---x---x-----------------------
Ab|---7--7--7--7--9---9---9---9---12--12--12--12--11--12----------------------
Eb|---------------------------------------------------------------------------

Eb|--------------------------------------------------------------------------|
Bb|--------------------------------------------------------------------------|
Gb|---9--9--9--9--11--11--11--11--14--14--14--14--14--14--16--14--13---------|
Db|---x--x--x--x--x---x---x---x---x---x---x---x---x---x---x---x---x----2-----|
Ab|---7--7--7--7--9---9---9---9---12--12--12--12--12--12--14--12--11---2-----|
Eb|--------------------------------------------------------------------0-----|

Verse: Clean
Eb|---------------------------------------------------------------------------
Bb|---------------------------------------------------------------------------
Gb|---9---8----11/---13/---2---1---2-1-2-1--------9--8--11/---13/---2---1-----
Db|---9---9----------------2---2-----------2------9--9---9/---------2---2---2-
Ab|---7---7----------------0---0------------------7--7---7/---------0---0-----
Eb|---------------------------------------------------------------------------

Eb|--------------------------------------------------------------------------|
Bb|--------------------------------------------------------------------------|
Gb|---9--8---11--13/---2---1----11-13---11-13---13-14h-13p-14h---------------|
Db|---9--9-------------2---2-------------------------------------------------|
Ab|---7--7-------------0---0-------------------------------------------------|
Eb|--------------------------------------------------------------------------|

Pre Chorus: Light Distortin
Eb|----------0------------0------------0---0--0--0--0--0--0--0--0--0--0--0----
Bb|----------0------------0------------0---0--0--0--0--0--0--0--0--0--0--0----
Gb|-----------------------6------------9---9--9--9--9--9--9--9--9--9--9--9----
Db|-------4------------7------------9------9--9--9--9--9--9--9--9--9--9--9----
Ab|-----4-----------7------------7---------7--7--7--7--7--7--7--7--7--7--7----
Eb|---2----------5------------0-----------------------------------------------

Eb|----------0------------0------------0--------------------------------------|
Bb|----------0------------0------------0--------------------------------------|
Gb|-----------------------6-----------9---------------------------------------|
Db|-------4------------7------------9-----7--7--7--7--7--7--7--7--2~~---------|
Ab|-----4-----------7------------7--------7--7--7--7--7--7--7--7--2~~---------|
Eb|---2----------5------------0-----------5--5--5--5--5--5--5--5--0~~~--------|

Chorus: Clean
Eb|---------------------------------------------------------------------------|
Bb|---------------------------------------------------------------------------|
Gb|---9---------------9-8-------8-9------9-8---9----------9-8------9-8--------|
Db|---9----------------------------------------9------------------------------|
Ab|---7-----------9---------11--------9--------7------9---------9-------------|
Eb|---------------7---------9---------7---------------7---------7-------------|

Bridge: Distortion
Eb|----------------------------------------------------------------------------
Bb|----------------------------------------------------------------------------
Gb|----------------------------------------------------------------------------
Db|---7--7--7--7--9--9--9--9--2--2--2--2--2--2--2--2---------------------------
Ab|---7--7--7--7--9--9--9--9--2--2--2--2--2--2--2--2---------------------------

Eb|---5--5--5--5--7--7--7--7--0--0--0--0--0--0--0--0---------------------------

Eb|---------------------------------------------------------------------------
Bb|---------------------------------------------------------------------------
Gb|---------------------------------------------------------------------------
Db|---7--7--7--7--9--9--9--9--2--2--2--2--2--2--2--2--------------------------
Ab|---7--7--7--7--9--9--9--9--2--2--2--2--2--2--2--2--------------------------
Eb|---5--5--5--5--7--7--7--7--0--0--0--0--0--0--0--0--------------------------

Eb|---------------------------------------------------------------------------
Bb|---------------------------------------------------------------------------
Gb|---------------------------------------------------------------------------
Db|---11--11--11--11--11--11--11--11---9--9--9--9--9--9--9--9-----------------
Ab|---11--11--11--11--11--11--11--11---9--9--9--9--9--9--9--9-----------------
Eb|---9---9---9---9---9---9---9---9----7--7--7--7--7--7--7--7-----------------

Eb|--------------------------------------------------------------------------|
Bb|--------------------------------------------------------------------------|
Gb|--------------------------------------------------------------------------|
Db|---7--7--7--7--7--7--7--7~~-----------------------------------------------|
Ab|---7--7--7--7--7--7--7--7~~-----------------------------------------------|
Eb|---5--5--5--5--5--5--5--5~~-----------------------------------------------|

Interlude: Clean, Last 8 Notes w/ Distortion

Eb|--------------------------------------------------------------------------|
Bb|--------------------------------------------------------------------------|
Gb|---9---8---9/---2---1--------9---8----11/---13/---2--2--2--2--2--2--2--2--|
Db|---9---9---9/---2---2---2/---9---9----------------2--2--2--2--2--2--2--2--|
Ab|---7---7---7/---0---0--------7---7----------------0--0--0--0--0--0--0--0--|
Eb|--------------------------------------------------------------------------|

Chorus: Distortion
Eb|---------------------------------------------------------------------------
Bb|---------------------------------------------------------------------------
Gb|---------------------------4--4--4--4--4--4--4--4--6--6--6--6--6--6--6--6--
Db|---2--2--2--2--2--2--2--2--4--4--4--4--4--4--4--4--6--6--6--6--6--6--6--6--
Ab|---2--2--2--2--2--2--2--2--2--2--2--2--2--2--2--2--4--4--4--4--4--4--4--4--
Eb|---0--0--0--0--0--0--0--0--------------------------------------------------

Eb|---------------------------------------------------------------------------
Bb|---------------------------------------------------------------------------
Gb|---------------------------------------------------------------------------
Db|---7--7--7--7--7--7--7--7--------------------------------------------------
Ab|---7--7--7--7--7--7--7--7--------------------------------------------------
Eb|---5--5--5--5--5--5--5--5--------------------------------------------------

Eb|---------------------------------------------------------------------------
Bb|---------------------------------------------------------------------------
Gb|---------------------------4--4--4--4--4--4--4--4--6--6--6--6--6--6--6--6--
Db|---2--2--2--2--2--2--2--2--4--4--4--4--4--4--4--4--6--6--6--6--6--6--6--6--
Ab|---2--2--2--2--2--2--2--2--2--2--2--2--2--2--2--2--4--4--4--4--4--4--4--4--
Eb|---0--0--0--0--0--0--0--0--------------------------------------------------

Eb|---------------------------------------------------------------------------
Bb|---------------------------------------------------------------------------
Gb|---------------------------------------------------------------------------
Db|---7--7--7--7--7--7--7--7--------------------------------------------------
Ab|---7--7--7--7--7--7--7--7--------------------------------------------------
Eb|---5--5--5--5--5--5--5--5--------------------------------------------------

Eb|---------------------------------------------------------------------------
Bb|---------------------------------------------------------------------------
Gb|---------------------------4--4--4--4--4--4--4--4--6--6--6--6--6--6--6--6--
Db|---2--2--2--2--2--2--2--2--4--4--4--4--4--4--4--4--6--6--6--6--6--6--6--6--
Ab|---2--2--2--2--2--2--2--2--2--2--2--2--2--2--2--2--4--4--4--4--4--4--4--4--
Eb|---0--0--0--0--0--0--0--0--------------------------------------------------

Eb|---------------------------------------------------------------------------
Bb|---------------------------------------------------------------------------
Gb|---------------------------------------------------------------------------
Db|---7--7--7--7--7--7--7--7--------------------------------------------------
Ab|---7--7--7--7--7--7--7--7--------------------------------------------------
Eb|---5--5--5--5--5--5--5--5--------------------------------------------------

Eb|---------------------------------------------------------------------------
Bb|---------------------------------------------------------------------------
Gb|---------------------------4--4--4--4--4--4--4--4--6--6--6--6--6--6--6--6--
Db|---2--2--2--2--2--2--2--2--4--4--4--4--4--4--4--4--6--6--6--6--6--6--6--6--
Ab|---2--2--2--2--2--2--2--2--2--2--2--2--2--2--2--2--4--4--4--4--4--4--4--4--
Eb|---0--0--0--0--0--0--0--0--------------------------------------------------

Eb|--------------------------------------------------------------------------|
Bb|--------------------------------------------------------------------------|
Gb|--------------------------------------------------------------------------|
Db|---7~~~~~~~~~~------------------------------------------------------------|
Ab|---7~~~~~~~~~~------------------------------------------------------------|
Eb|---5~~~~~~~~~~------------------------------------------------------------|



Important: The song above is NOT stored on the Chordie server. The original song is hosted at www.xguitar.com. Chordie works as a search engine and provides on-the-fly formatting. Chordie does not index songs against artists/composers will. To remove this song please click here.

This song is displayed as text-only. Transposing and tuning is only available for chordpro-songs.

Login - add to songbook

Rating click stars to rate

Layout
Accuracy

SHARE PAGE  

You need to log in to post comments