Guitar Tabs, Chords and Lyrics


Hacked to Pieces   Six Feet Under



SIX FEET UNDER - HACKED TO PIECES
                            From the Album - MAXIMUM VIOLENCE
                              Copyright - METAL BLADE 1999
                                Version 1.0 Jan 14, 2003


Transcribed by: James Williams (Inverted)

For Questions, Comments, Newest Version, or Corrections contact
Inverted: at Inverted_one@hotmail.com

Check Out Death8699.com Metaltabs.com or dsrmusic.com for More
Transcriptions:http://www.Death8699.com http://www.Metaltabs.com
http://www.dsrmusic.com/metaltab

.  - palm mute           /  - slide up to
\  - slide down to       ~  - vibrato
h  - hammer on           b  - Bend
p  - pull off            Suffixes for bend
t  - tap                 f  - full bend    h - half bend
ph - pinched harmonic    q  - quarter bend t - tap bend
*  - see comment         ^  - Hold bend    r release bend
x  - Rest                ~  - vibrato bend
,  - slight palm mute    () - ghost note, sustained note
"  - tremolo note         - Trill

Tuning: "C"F"A#"D#"G"C"


Riff 1                       x3                             x1
|------------------------------|------------------------------|
|------------------------------|------------------------------|
|------------------------------|------------------------------|
|------------------------------|------------------------------|
|--------------------------2x--|------------------5--3--6--3--|
|--0-0-0-0-0-0-0-0-0-0-0-0-0x--|--0-0-0-0-0-0-0-0-3--1--4--1--|
|  . . . . . . . . . . . .        . . . . . . . .             |
|                            x3                             x1|
|------------------------------|------------------------------|
|------------------------------|------------------------------|
|------------------------------|------------------------------|
|------------------------------|------------------------------|
|--------------------------2x--|------------------5--3--------|
|--0-0-0-0-0-0-0-0-0-0-0-0-0x--|--0-0-0-0-0-0-0-0-3--1--------|
   . . . . . . . . . . . .        . . . . . . . .

Fill 1                       x3                             x1
|------------------------------|------------------------------|
|------------------------------|------------------------------|
|------------------------------|------------------------------|
|------------------------------|------------------------------|
|--------------------------2x--|------------------3-----------|
|--0-0-0-0-0-0-0-0-0-0-0-0-0x--|--0-0-0-0-0-0-0-0-1-----------|
   . . . . . . . . . . . .        . . . . . . . .

Riff 2
|--------------------------------------|
|--------------------------------------|
|--------------------------------------|
|--------------8888-------------8/6-8--|
|------77776666--------77776666-6/4-6--|
|--5555------------5555----------------|


Riff 3
|--------------------------------------------|
|--------------------------------------------|
|--------------------------------------------|
|-----------------------------------------6--|
|----5544---5544-----6----5544---5544-----4--|
|--33-----33-----333-4--33-----33-----333----|
   ..     ..     ...    ..     ..     ...

Riff 4-A
|------------------------------------------------------------|
|------------------------------------------------------------|
|------------------------------------------------------------|
|------------------------------------------------------------|
|--5--6--2---------------------------------------------------|
|--3--4--0--0-0-0-0-0-0-0-0-0-0-0-0-3-2-1-0-4-3-2-0-6-5-4-0--|
            . . . . . . . . . . . . . . . . . . . . . . . .

Riff 4-B
|------------------------------------------------------------|
|------------------------------------------------------------|
|------------------------------------------------------------|
|------------------------------------------------------------|
|-----3--2---------------------------------------------------|
|--0--1--0--0-0-0-0-0-0-0-0-0-0-0-0-3-2-1-0-4-3-2-0-6-5-4-0--|
   .        . . . . . . . . . . . . . . . . . . . . . . . .

Riff 4-C
|------------------------------------------------------------|
|------------------------------------------------------------|
|------------------------------------------------------------|
|-----3--4---------------------------------------------------|
|-----1--2---------------------------------------------------|
|--0--------0-0-0-0-0-0-0-0-0-0-0-0-3-2-1-0-4-3-2-0-6-5-4-0--|
   .        . . . . . . . . . . . . . . . . . . . . . . . .

Riff 4-D
|------------------------------------------------------------|
|------------------------------------------------------------|
|------------------------------------------------------------|
|------------------------------------------------------------|
|-----2--4---------------------------------------------------|
|--0--0--2--2-2-2-2-2-2-2-2-2-2-2-2-3-2-1-0-4-3-2-0-6-5-4-0--|
   .        . . . . . . . . . . . . . . . . . . . . . . . .

Riff 5 (Solo Riff)
|------------------------------------|--------------------------------------|
|------------------------------------|--------------------------------------|
|------------------------------------|--------------------------------------|
|--------------------------88888888--|-------------------------------8/6-8--|
|----------7777777766666666----------|----------77777777666666666666-6/4-6--|
|--55555555--------------------------|--55555555----------------------------|


Fill 2
|--------------|
|--------------|
|--------------|
|--------------|
|--5--6--5--3--|
|--3--4--3--1--|


End (Fade Out)               x3                             x1
|------------------------------|------------------------------|
|------------------------------|------------------------------|
|------------------------------|------------------------------|

|------------------------------|------------------------------|
|--------------------------2x--|------------------5--3--6--3--|
|--0-0-0-0-0-0-0-0-0-0-0-0-0x--|--0-0-0-0-0-0-0-0-3--1--4--1--|
|  . . . . . . . . . . . .        . . . . . . . .             |
|                                                             |
|------------------------------|------------------------------|
|------------------------------|------------------------------|
|------------------------------|------------------------------|
|------------------------------|------------------------------|
|--------------------------2x--|--------------------------2x--|
|--0-0-0-0-0-0-0-0-0-0-0-0-0x--|--0-0-0-0-0-0-0-0-0-0-0-0-0x--|
   . . . . . . . . . . . .        . . . . . . . . . . . .


Check out my other tabs by: Deicide, Obituary, Hypocrisy,
Grave, Catastrophic, Six Feet Under, Incantation, Death,
Cannibal Corpse, Broken Hope, Cancer, Dark Tranquillity,


Important: The song above is NOT stored on the Chordie server. The original song is hosted at www.xguitar.com. Chordie works as a search engine and provides on-the-fly formatting. Chordie does not index songs against artists'/composers' will. To remove this song please click here.

This song is displayed as text-only. Transposing and tuning is only available for chordpro-songs.

Login - add to songbook

Rating click stars to rate

Layout
Accuracy

SHARE PAGE  




You need to log in to post comments