Chordie logo

Waiting for Decay   Six Feet Under



SIX FEET UNDER - WAITING FOR DECAY
                             From the Album - TRUE CARNAGE
                              Copyright - METAL BLADE 2001
                                Version 2.0 Jan 16, 2003


Transcribed by: James Williams (Inverted)

For Questions, Comments, Newest Version, or Corrections contact
Inverted: at Inverted_one@hotmail.com

Check Out Death8699.com Metaltabs.com or dsrmusic.com for More
Transcriptions:http://www.Death8699.com http://www.Metaltabs.com
http://www.dsrmusic.com/metaltab

.  - palm mute           /  - slide up to
\  - slide down to       ~  - vibrato
h  - hammer on           b  - Bend
p  - pull off            Suffixes for bend
t  - tap                 f  - full bend    h - half bend
ph - pinched harmonic    q  - quarter bend t - tap bend
*  - see comment         ^  - Hold bend    r release bend
x  - Rest                ~  - vibrato bend
,  - slight palm mute    () - ghost note, sustained note
"  - tremolo note         - Trill

Tuning: "B"E"A"D"F#"B"


Riff 1
|----------------------------------|
|----------------------------------|
|----------------------------------|
|--555555444444--------------------|
|----------------5--6--5--6--5--2--|
|----------------3--4--3--4--3--0--|
                 .  .  .

Riff 2
|----------------------------------|
|----------------------------------|
|----------------------------------|
|-----------3----------------------|
|--5--6--5--1--5--3----------------|
|--3--4--3-----3--1--666666555555--|
   .  .  .

Riff 3-A
|------------------------------------|
|------------------------------------|
|------------------------------------|
|------------------------------------|
|------------------------------------|
|--66666666555555558888888844444444--|


Riff 3-B
|------------------------------------|
|------------------------------------|
|------------------------------------|
|------------------------------------|
|--33333333222222225555555511111111--|
|------------------------------------|


Riff 4
|---------------------------------|
|---------------------------------|
|---------------------------------|
|---------------------------------|
|--6--4--2--6--4--2---------------|
|--4--2--0--4--2--0--1-111-0-000--|
   .  .  .  .  .  .  . ... . ...

Fill 1
|---------------------------|
|---------------------------|
|---------------------------|
|---------------------------|
|--1-111-1-111--------------|
|--------------4-444-3-333--|
   . ... . ... . ... . ...


Riff 5
|--------------------------------------|
|--------------------------------------|
|--2--------5--------4--------3--------|
|--0--------3--------2--------1--------|
|--0--------3--------2--------1--------|
|--------------------------------------|


Riff 6
|---------------------------|
|---------------------------|
|---------------------------|
|--8-----8-----7-----7------|
|--6-----6-----5-----5------|
|--6-666-6-666-5-555-5-555--|


Important: The song above is NOT stored on the Chordie server. The original song is hosted at www.xguitar.com. Chordie works as a search engine and provides on-the-fly formatting. Chordie does not index songs against artists/composers will. To remove this song please click here.

This song is displayed as text-only. Transposing and tuning is only available for chordpro-songs.

Login - add to songbook

Rating click stars to rate

Layout
Accuracy

SHARE PAGE  



You need to log in to post comments