Chordie logo

Burning Blood   Six Feet Under



X===============================PLEASE NOTE==============================X
X  This tab is all my own and represents my interpretation of the song.  X
X You may only use this tab for private study, scholarship, or research. X
X  Do not change, deface, mutilate, or in any other way alter this tab.  X
X   You must email me first if you want to use this tab on your site.    X
X========================================================================X
*Burning Blood*
Transcribed by Obscured@san.rr.com
Http://home.san.rr.com/obscured
Tuning: D G C F A D
VERSE
|-------------------------------------|
|-------------------------------------|
|-------------5-4------------8-----7--|
|-7--7------5-5-4--7--7------8-----7--|
|-7--7------5-3-2--7--7------6-----5--|
|-5--5--0-0-3-3-2--5--5--0-0---0-0----|
        ...              ...   ...
CHORUS
|-------------------------------------------------------|
|-------------------------------------------------------|
|-------------------------------------------------------|
|-2-----5----------8------7--2-----3----------6------5--|
|-2-----5----------8------7--2-----3----------6------5--|
|-0-0-0-3--0-0-0-0-6--0-0-5--0-0-0-1--0-0-0-0-4--0-0-3--|
    ...    .......    ...      ...    .......    ...
VERSE 2 - Same
CHORUS 2 - Same
SOLO
|-------------------------------------------|
|-------------------------------------------|
|----------------8\7------------------------|
|-2-2-5--------7-8\7-7--2-2-5--------8\3-5--|
|-2-2-5--------7-6\5-7--2-2-5--------8\3-5--|
|-0-0-3-0-0--0-5-6\5-5--0-0-3-0-0--0-6\1-3--|
        ...  .                ...  .
CHORUS 3 - Same
INTERLUDE - Play guitar solo riff
VERSE 3 - Same
CHORUS 4 - Same
VERSE 4/OUTRO - Same

End on verse riff


Important: The song above is NOT stored on the Chordie server. The original song is hosted at www.xguitar.com. Chordie works as a search engine and provides on-the-fly formatting. Chordie does not index songs against artists/composers will. To remove this song please click here.

This song is displayed as text-only. Transposing and tuning is only available for chordpro-songs.

Login - add to songbook

Rating click stars to rate

Layout
Accuracy

SHARE PAGE  

You need to log in to post comments