Chordie logo


It Wasn't Meant To End This Way    Skyclad







				S K Y C L A D

			It wasn't meant to end this way
				   (intro)

			Tabbed by Richard J. Brown

			Typed by Colin Lewis

	This is an excellent piece from the JONAH'S ARK album on Noise records.
For those of you who don't know this is their 4th album, and they have since
released two more.
	I know this is only partial, but i think that it is so cool that i had
to TAB it up. The music was actually written by the bass player who is
classically trained.

NOTE:	Play with fingers on an acoustic for most record like sound.

||--0--2--3----------------------0--2--3--5--7--8--7--5--7---||
||*---------------------------------------------------------*||
||--------------5--4--2--4----4------------------------------||
||-----------------------------------------------------------||
||*-------------0-------------------------------0-----------*||
||--0-------------------------0------------------------------||

||--0--3--5--7--0--3--5--7--8--7---------||
||*-------------------------------8--5--*||
||---------------------------------------||
||---------------------------------------||
||*-------------------0-----------------*||
||--0------------------------------------||

|----------------------------------------------------|
|-5--7--5--3--0--------------------------------------|
|----------------5--4--2--0--2-----------------------|
|-------------------------------5--4--2--0--2--4--2--|
|----------------0-----------------------------------|


Important: The song above is NOT stored on the Chordie server. The original song is hosted at www.xguitar.com. Chordie works as a search engine and provides on-the-fly formatting. Chordie does not index songs against artists/composers will. To remove this song please click here.

This song is displayed as text-only. Transposing and tuning is only available for chordpro-songs.

Login - add to songbook

Rating click stars to rate

Layout
Accuracy

SHARE PAGE  




You need to log in to post comments