Guitar Tabs, Chords and Lyrics


Cardboard City    Skyclad



Skyclad "Cardboard City"
Prince of the Poverty Line

Note:  I didn't include the structure, but it's really
not that hard to figure out..

Standard Tuning

Legend:
-------
~ vibrato

 riff 1
|-------------------------------------------------------|
|-------------------------------------------------------|
|-------------------------------------------------------|
|-------------------------------------------------------|
|--7--5-5--4--5--4------4------7--5-5--4--5--4----------|
|-------------------5-7---7~--------------------5-7~----|

 riff2
|---------------------------------------------------------|
|---------------------------------------------------------|
|---------------------------------------------------------|
|--2-2-2--4-4-4--0-0-0--2-2-2--2-2-2--0-0-0--4-4--5-2-----|
|---------------------------------------------------------|
|---------------------------------------------------------|

 riff 3
|--------------------------------------------------------------|
|--------------------------------------------------------------|
|--------------------------------------------------------------|
|-----7--9-9-9--11-12-11--9-9-9------7-------------------------|
|-7-9----------------------------7-9---10-10-10--9-10-9--7-7-7-|
|--------------------------------------------------------------|

 riff 4
|---------------------------------------------------------------|
|---------------------------------------------------------------|
|-4-----4-----4-----4-----4--4--5-----5-----5------2-----2--2---|
|-4-----4-----4-----4-----4--4--5-----5-----5------2-----2--2---|
|-2-2-2-2-2-2-2-2-2-2-2-2-2--2--3-3-3-3-3-3-3--0-0-0-0-0-0--0---|
|---------------------------------------------------------------|

|---------------------------------------------------------------|
|---------------------------------------------------------------|
|-4-----4-----4-----4-----4--4--5-----5-----5---7-----7-----7---|
|-4-----4-----4-----4-----4--4--5-----5-----5---7-----7-----7---|
|-2-2-2-2-2-2-2-2-2-2-2-2-2--2--3-3-3-3-3-3-3-3-5-5-5-5-5-5-5---|
|---------------------------------------------------------------|

 riff 5 (under solo)
|-----------------------------------------------|
|-----------------------------------------------|
|---7-------------------------------------------|
|---7-----------------------------------2-------|
|---5-----------------------------------2-------|
|---------------------------------------0-------|

 riff 6
|-------------------------------|-------------------------------|
|-------------------------------|-------------------------------|
|-7-----------9--------4--5--9--|--7-----------9-------4--5--2--|
|-7-----------9--------4--5--9--|--7-----------9-------4--5--2--|
|-5-----------7--------2--3--7--|--5-----------7-------2--3--0--|
|-------------------------------|-------------------------------|

 riff 7
|--------------------------------|
|--------------------------------|
|--------------------------------|
|-2-2-2-2--0-0--2-2-2--4-5-2-----|
|--------------------------------|


Important: The song above is NOT stored on the Chordie server. The original song is hosted at www.xguitar.com. Chordie works as a search engine and provides on-the-fly formatting. Chordie does not index songs against artists/composers will. To remove this song please click here.

This song is displayed as text-only. Transposing and tuning is only available for chordpro-songs.

Login - add to songbook

Rating click stars to rate

Layout
Accuracy

SHARE PAGE  




You need to log in to post comments