Sex. Murder. Art.

Slayer

SLAYER
Sex, Murder, Art
DIVINE INTERVENTION
Tune Down 1/2 Step
 6Eb3Gb5Ab2Bb4Db1Eb
                                                                              Play 4 times
|---------------------------------------------------------------------------|
|---------------------------------------------------------------------------|
|---------------------------------------------------------------------------|
|-------------5---------7-----6----5----------------------------------------|
|--4--6--7--4---7--4-6-----6----6----6--7-5---------------------------------|
|---------------------------------------------------------------------------|   

P.M..........| .........| ............
|---------------------------------------------------------------------------|
|---------------------------------------------------------------------------|
|---------------------------------------------------------------------------|
|---------------------------------------------------------------------------|
|-------------1-----------3---2---1-----------------------------------------|
|-0--2--3--0-----3--0--2---(2)-(2)---3---2---1------------------------------|
|---------------------------------------------------------------------------|
|---------------------------------------------------------------------------|
|---------------------------------------------------------------------------|
|---------------------------------------------------------------------------|
|-------------1-----------3-2-1---------------------------------------------|
|-0--2--3--0-----3--0--2--------3--2--1---1~~~~~~~~~~~~~~~~~~---------------|   

Caught! Now You're mine... blah blah blah
P.M. ......................................................
|---------------------------------------------------------------------------|
|---------------------------------------------------------------------------|
|---------------------------------------------------------------------------|
|---------------------------------------------------------------------------|
|-----------------------------------------------------------3h4p3-----------|
|-3-3-3-3-3-3--4p3-3-3-33-3-3-3-3-4p3-3-3-3-3-4p3-3-3-3-3-3-----------------|   

P.M..................................................
|---------------------------------------------------------------------------|
|---------------------------------------------------------------------------|
|---------------------------------------------------------------------------|
|---------------------------------------------------------------------------|
|-----------------------------------------------------3-4-------------------|
|-3-3-3-3-3-3--4p3-3-3-3-3-3-3-3-3-3-4p3-3-3-3-3-3-3--3-2-------------------|   

P.M. .......................................................
|---------------------------------------------------------------------------|
|---------------------------------------------------------------------------|
|---------------------------------------------------------------------------|
|---------------------------------------------------------------------------|
|------------------------------------------------------------3h4p3----------|
|-3-3-3-3-3-3-4p3-3-3-3-3-3-3-3-3-3--4p3-3-3-3-3-4p3-3-3-3-3----------------|
|---------------------------------------------------------------------------|
|---------------------------------------------------------------------------|
|---------------------------------------------------------------------------|
|----------------------------------------------------6-5--------------------|
|----------------------------------------------------6-5--------------------|
|-3-3-3-3-3-3-4p3-3-3-3-3-3-3-3-3-3 4p3-3-3-3-3-3-3-------------------------|   

Chorus
P.M. Throughout
|-------------|-------------------------------------------------------------|
|-------------|-------------------------------------------------------------|
|-------------|-------------------------------------------------------------|
|6--5--3--1---|-------------------------------------------------------------|
|6--5--3--1---|-------------------------------------------------------------|
|-------------|-1-1-1-1-1-1-1-1-4p1-1-1-1-1-1-1-1-3p1-1-1-1-1-1-1--2p1-1-1-1|
|---------------------------------------------------------------------------|
|---------------------------------------------------------------------------|
|---------------------------------------------------------------------------|
|---------------------------------------------------------------------------|
|---------------------------------------------------------------------------|
|-1-1-1-1-1-1-1-11-1-1-1-4p1-1-1-1-1-1-1-3p1-1-1-1-1-1-1-1-2p1-1-1-1-1-1-1--|
|---------------------------------------------------------------------------|
|---------------------------------------------------------------------------|
|---------------------------------------------------------------------------|
|---------------------------------------------------------------------------|
|---------------------------------------------------------------------------|
|2-2-2-2-2-2-2-2-5p2-2-2-2-2-2-2-2-4p2-2-2-2-2-2-3p2-2-2-2-2-2-2-2-5p2------|
|---------------------------------------------------------------------------|
|---------------------------------------------------------------------------|
|---------------------------------------------------------------------------|
|---------------------------------------------------------------------------|
|---------------------------------------------------------------------------|
|2-2-2-2-2-2-2-2-4p2--2-2-2-2-2-2-3p2-2-2-2-2-2-2-2-------------------------|
|---------------------------------------------------------------------------|
|---------------------------------------------------------------------------|
|---------------------------------------------------------------------------|
|---------------------------------------------------------------------------|
|---------------------------------------------------------------------------|
|3-3-3-3-3-3-3h6p3-4-4-4-4-4-4-4-4-4-4-4-4-4-4-4h7p4-5-5-5-5-5-5-5-5-5-5----|
|---------------------------------------------------------------------------|
|---------------------------------------------------------------------------|
|---------------------------------------------------------------------------|
|---------------------------------------------------------------------------|
|---------------------------------------------------------------------------|
|-5-5-5-5h8p6-6-6-6-6-6-6-6-6-6-6-5-5-5-5-4-4-4-4-3-3-3-3-3-3-3-3-3h6p3-----|   

End P.M
|---------------------------------------------------------------------------|
|---------------------------------------------------------------------------|
|---------------------------------------------------------------------------|
|---------------------------------------------------------------------------|
|-------------------------------------------------------8-------------------|
|-4-4-4-4-4-4-4-4-4h7p4-5-5-5-5-5-5-5-5-5-5-5-5-5-5-5-5-6-------------------|
|---------------------------------------------------------------------------|
|---------------------------------------------------------------------------|
|---------------------------------------------------------------------------|
|---------------------------------------------------------------------------|
|---------------------------------------------------------------------------|
|--5-5-5-5-4-4-4-4----------------------------------------------------------|
|---------------------------------------------------------------------------|
|---------------------------------------------------------------------------|
|---------------------------------------------------------------------------|
|---------------------------------------------------------------------------|
|---------------------------------------------------------------------------|
|-5p2-2-2-2-2-2-2-2-4p2-2-2-2-2-2-2-2-3p2--2-2-2-2-2-2-2-2-2-2-2-2-2-2-2-2--|
|---------------------------------------------------------------------------|
|---------------------------------------------------------------------------|
|---------------------------------------------------------------------------|
|---------------------------------------------------------------------------|
|-2--3-2----5--4-----7---6-------9\-2-3-2---5-4-----8--7-----10\------------|
|-0--1-0--0-3--2--0--5---4---0---7\-0-1-0-0-3-2--0--6--5---0--8\------------|   

Slaves to My torments
P.M..........
|---------------------------------------------------------------------------|
|---------------------------------------------------------------------------|
|---------------------------------------------------------------------------|
|---------------------------------------------------------------------------|
|-2--3-2------5--4------7--6------9\----------------------------------------|
|-0--1-0---0--3--2---0--5--4---0--7\----0-0-0-0-----------------------------|   

Scream to your hearts content P.M............
|---------------------------------------------------------------------------|
|---------------------------------------------------------------------------|
|---------------------------------------------------------------------------|
|---------------------------------------------------------------------------|
|-2--3---2------5--4------8---7------10\------------------------------------|
|-0--1---0----0-3--2---0--6---5---0---8\------0-0-0-0-----------------------|   

Repeat above for "Time, Time again.. Pleasure in inflicting pain"
"Power so intense, Trying to Circumvent"
Unadulterated Battery Ma-ni- pula ted reality
|---------------------------------------------------------------------------|
|---------------------------------------------------------------------------|
|---------------------------------------------------------------------------|
|---------------------------------------------------------------------------|
|-2---3---2-----5--4----7--6-------9---2-3-2-----5--4------8--7-----10------|
|-0---1---0--0--3--2--0-5--4----0--7---0-1-0--0--3--2---0--6--5---0--8------|   

GOD IS DEAD____________________ P.M.......
|---------------------------------------------------------------------------|
|---------------------------------------------------------------------------|
|---------------------------------------------------------------------------|
|---------------------------------------------------------------------------|
|-2--3--2-----5--4-----7----6-----9-----------------------------------------|
|-0--1--0---0-3--2---0-5----4---0-7-----0-0-0-0-----------------------------|   

I AM ALIVE!!!!!!!!!!!!!!!!!!!
|---------------------------------------------------------------------------|
|---------------------------------------------------------------------------|
|---------------------------------------------------------------------------|
|---------------------------------------------------------------------------|
|-5-4-------8--7------10----9-------(9)\------------------------------------|
|-3-2----0--6--5---0---8----7-------(7)\------------------------------------|   

Ok Here's the lyrics
Sex, Murder, Art.
Music: Kerry King
Lyrics: Tom Araya
Caught
Now you're mine
I am the master of your whipping time
The smile
On my lips
The look of horror on your face
Self
Justification
Can't be rid of the sexual fascination
 Can
 You deny
My face of pleasure the gleam in my eye
You're nothing
An onject of animation
A subjection mannequin
Beaten into submission
Raping again and again
Shackled
My prison
Dangling is distress
Here
To discipline
My sole purpose never rests
Bleeding
On your knees
My satisfaction is what i need
The urge
To take my fist
And violate every orifice
You're nothing
An object of animation
A subjective mannequin
Beaten into submission
Raping again and again
Slaves to my torments
Scream to your heart's content
Time and time again
Pleasure in inflicting pain
Power so intense
trying to circumvent
Unadulterated battery
Manipulated reality
God is dead, I am alive
***********************************************************************
jamesj@svpal.org | Check out Fear Factory's new
Face Down Arms out | Album-Demanufacture.
Nailed to the Cross of Doubt | It's fuckin' KILLER
Blood Runs Like Rain |**********************************
Drowning for this world in vain |Fav Bands
Crown Of Black Thorns |Megadeth/Slayer/Pantera/Sepultura
Human Skin, Ripped and torn |Fear Factory/Machine Head/CoC
Where is Your Savior now? |And My Own.
--Burton C. Bell/Fear Factory|
***********************************************************************


Ab Bb Db Eb Gb
variations - click chord images
Transpose chords:
Tuning:
Cool service:
View: Size:
A  A  A
Rating:
Layout:
  • Currently 3.7/5 Stars.
  • 1
  • 2
  • 3
  • 4
  • 5
 
Accuracy:
  • Currently 4/5 Stars.
  • 1
  • 2
  • 3
  • 4
  • 5
 
click stars to rate
Chordie recommends:
Check out these online guitar lessons
Songbook:
Login to add this song to your songbook
Support the artist
Preview/buy this song
MSN Music
Why this non-profit ad?

 
login to add comments/video/corrections