Guitar Tabs, Chords and Lyrics


Hallowed Point   Slayer




		     	  Hallowed Point
			        By: Slayer

Tuning:  Eb, Ab, Db, Gb, Bb, eb
Tempo- 226 bpm

This song has too many damn leads.  I did 2 of the 4, if anyone wants any of
the other leads that I didn't do, just e-mail me and I'll try to get it done
as soon as I can!!!

Intro-
|-----------------|
|-----------------|
|-7-6-----5-4---3-|
|-7-6-7-6-5-4---3-|
|-5-4-7-6-3-2-3-1-|
|-----5-4-----3---|

Verse riff-
|-------------------------------------------
|-------------------------------------------
|-------------------------------------------
|-------------------------------------------
|------3p2----------------3p2---------------
|-2222-----22222222222222-----22-5p2-22-3-5-
pm----     --------------     --     ------

---------------------------------------|
---------------------------------------|
---------------------------------------|
---------------------------------------|
------3p2----------------3p2--------3--|
-2222-----22222222222222-----222222-3--|
pm---     --------------     ------

Fill-
|---------|
|---------|
|-5-4---3-|
|-5-4---3-|
|-3-2-3-1-|
|-----3---|

Chorus-
|--------------------------------------------
|--------------------------------------------
|--------------------------------------------
|--------------------------------------------
|------5p2p0----------------5p2p0----0--2--3-
|-0000-------00000000000000-------00---------
pm----       --------------       --

-----------------------------------------------
-----------------------------------------------
-----------------------------------------------
--------------------------------------2-----1--
--------5p2p0----------------5p2p0-------3-----
-000000-------00000000000000-------00----------
pm-----       --------------       --   

2nd time thru, skip to Coda instead of riff below

-------------------------|
-------------------------|
-------------------------|
----------------------8--|
--------5p2p0---------8--|
-000000-------000000--6--|

1st Guitar Solo-
Backup riff
|----------------------------------------------
|o---------------------------------------------
|----------------------------------------------
|----------------------------------------------
|o-------6p5----------------6p5----------------
|---5555-----55555555555555-----55-8p5-55-6-8--
  pm----     --------------     --     ------

----------------------|---------------------|
---------------------o|---------------------|
----------------------|---------------------|
----------------------|---------------------|
------6p5------------o|------6p5---------8--|
-5555-----5555555555--|-5555-----555555--6--|
pm---     ----------    ----     ------

|----24p21----21----------------24p21----21----------
|-23-------23----23p21h23p21h23-------23----23p21h23-
|----------------------------------------------------
|----------------------------------------------------
|----------------------------------------------------
|----------------------------------------------------

                                                /
-24p21----21----------24p23p21----21--------18//-
-------23----23p21h23----------23----23p21--21/--
-------------------------------------------------
-------------------------------------------------
-------------------------------------------------
-------------------------------------------------

    /\  /                             1 1/4
-18//\\//----------------------------------full-------
-21/--\/--(21)\-18h21p18h21p18----------/\--/\--------
-------------------------------20p18-20/--\/--\(20)\--
------------------------------------------------------
------------------------------------------------------
------------------------------------------------------

--------------------------------------------
--------------------------------------------
--------------------------------------------
-------------------------------13-----------
-------13-------13-------13h15----15p13h15--
-13h16----13h16----13h16--------------------
pm-----------------------------------------

--------------------------------------------------------------------------------
------------------------------------full----------------------------------------
--------------------------------------/-----------------------------15h17p15h17-
-------13----15p13----13----13h15--15/---15h16h17-15h16h17-15h16h17-------------
-13h15----15-------15----15-----------------------------------------------------
--------------------------------------------------------------------------------

   1 1/2
------------------------------------------------|
----/^-------------1-step-throughout------------|
-17/--^--------\/----\/--\/------(17)\--/(17)\--|
-------^------------------------------\/--------|
--------^2-1/2----------------------------------|
------------------------------------------------|

Coda-                                          Alt. endings:
|----------------------------------------------------|---------|----|
|----------------------------------------------------|---------|----|
|----------------------------------------------------|---------|----|
|----------------------------------------------------|-8-------|-8\-|
|------10p9----8p9------------10p9----8p7----7-9-10--|----9--7-|-8\-|
|-0000------00-----0000000000------00-----00---------|---------|-6\-|
pm----      --     ----------      --     --

|----------------------------------------------------------------------|
|----------------------------------------------------------------------|
|----------------------------------------------------------------------|
|----------------------------------------------------------------------|
|----------5--------4-5---------------------------------------4-5------|
|-22222222---222222-----222222222222-000000000000000033333333-----3333-|
pm--------   ------     -------------------------------------     ----

|-----------------------|-----------------|
|o---------------------o|-----------------|
|-----------------------|-----------------|
|--4----4----2----5-----|-----------2--5--|
|o-4----4----2----5----o|-44444444--2--5--|
|--2-22-2-00-0-00-3-00--|-22222222--0--3--|
   pm--   --   --   --    --------

|------------------------------------------------------------------
|------------------------------------------------------------------
|------------------------------------------------------------------
|---3-------------------------------3------------------------------
|-----4---5-4---4-3-------3-2---2-----4---5-4---4-3-------3-2------
|-2-----2-----2-----0-2-3-----3---2-----2-----2-----0-2-3-----3-5--
pm-     -     -     -----     -   -     -     -     -----     ---

------------------------------------------------------------------|
------------------------------------------------------------------|
------------------------------------------------------------------|
---3-------------------------------3------------------------------|
-----4---5-4---4-3-------3-2---2-----4---5-4-----3-2---2-1--------|
-2-----2-----2-----0-2-3-----3---2-----2-----0-2-----3-----2-0-1--|
 -     -     -     -----     -   -     -     ---     -     -----

Guitar Solo 4-                                              Do this bend a few more times
                                       A.H.                       /   /   /   / 
|-----------------------------------------------------15-14-12-12//12//12//12//--
|-----------------------------------------------------15-14-12-15/-15/-15/-15/---
|-2/12--11~~~----------12~~~-(12)\7/12-11~~~-------------------------------------
|-------------11-12-14-----------------------11-12-14----------------------------
|--------------------------------------------------------------------------------
|--------------------------------------------------------------------------------

                                                                            /     /
----------------------------------------------12-14-15-17-17-17-19-19-19-19/---19/-~~~~\
-------------------------------------12-14-15-------------------------------------------
----------------------------11-12-14----------------------------------------------------
-------------------11-12-14-------------------------------------------------------------
----------10-12-14----------------------------------------------------------------------
-10-12-14-------------------------------------------------------------------------------
pm--------------------------

-/17-17-19-21-21-19-17-17--------------------------------------------------------
--------------------------20-19-17-----------------------------------------------
----------------------------------19-18-18-16------------------------------------
-----------------------------------------------19-17-16--------------------------
--------------------------------------------------------19-17-16-----------------
-----------------------------------------------------------------19-17-15--14~~~-

                              A.H.                                                   /
----------------------------------------------15-15-15-15-17-17-17-17-19-19-19-19-19/-~~~\
-------------------------------------14-15-17---------------------------------------------
-------------------------------11~~~------------------------------------------------------
----------------------11-12-14------------------------------------------------------------
----------14~~~-(14)\---------------------------------------------------------------------
-12-14-15---------------------------------------------------------------------------------
pm-

Ending thingy:
|------|
|------|
|------|
|-4-4\-|
|-4-4\-|
|-2-2\-|

key:
A.H.-artificial harmonic
N.H.-natural harmonic    /^^^\
p-pull off              /     \ -bend up and gradually release
h-hammer on
t-tap picking
/-slide up
\-slide down
p.m.-palm mute
~~~-vibrato
x-pick scrape/slide
 /
/  -bend up		|o-------o|
\  			|---------|-repeat riff
 \-bend down            |o-------o|               
(0)-ghost note                                                                                                                                                                                                                                                                                                                    
       __                                                                                                  
     /  /    _    __     __    __ ___ _____                                                         
    /  /    / /  |  \    \ \  / // _| |  _ \                                                           
   /  /___ / /   | |\\    \ \/ // /_  | |_\ \                                                              
  /___   // /    | __ \    \  // ___| |  __ _\                                                     
     /  // /____ | | \ \   / // /____ | |  \ \                                                                
    /  //_______||_|  \ \ / //_______||_|   \ \                                                                            
   /  /                \_\ /                 \ \   
  /  /                  /_/                   \_\     
 /__/                                              
Questions, comments, requests, death threats: dschellhaas@hotmail.com 
Enjoy...or you'll be shot.  :)








Hallowed point
album: seasons in the abyss
slayer

tabbed by Rudy Guzman

solo 2

eb:-----------------------------------------------|
Bb:-----------------------------------------------|
Gb:-14h17p14----14h17p14-----14h17p14----14h17p14-|
Db:----------16-----------16----------16----------|
Ab:-----------------------------------------------|
Eb:-----------------------------------------------|
eb:-----17b--17-17-17-17-17---17-16-14-----17-16-14------15-14-12-|
Bb:-18b--------------------------------17------------17-----------|
Gb:---------------------------------------------------------------|
Db:---------------------------------------------------------------|
Ab:---------------------------------------------------------------|
Eb:---------------------------------------------------------------|
                      t     t      t     t     t   t    t     t    t
eb:---11-13-14----------------------------------------------------------|
Bb:15----------14-------------------------------------------------------|
Gb:------------------12p10-12p10--12p10-12p10-11p9-11p9-11p9-10p8-10p8--|
Db:---------------------------------------------------------------------|
Ab:---------------------------------------------------------------------|
Eb:---------------------------------------------------------------------|

     t    t                                                          trem. 
bar
eb:---------------------------------------------------------------------|
Bb:---------------------------------------------------------------------|
Gb:-10p8-10p8---10\5----3AHb--2-3-5-3-2------------------------2b--3--2-|
Db:-------------------------------------5-3-2--3-2-3-2------------------|
Ab:----------------------------------------------------5-3-2b-----------|
Eb:---------------------------------------------------------------------|
eb:--------------------------------------------------------------16-17-19|
Bb:--------------------------------------------16-17-19-16-17-19---------|
Gb:----------16-17-16-17-16-----------16-18-19---------------------------|
Db:-16-17-19-----------------16-18-19------------------------------------|
Ab:----------------------------------------------------------------------|
Eb:----------------------------------------------------------------------|
eb:-16-17-19--21b-21b-21b-|
Bb:-----------------------|
Gb:-----------------------|
Db:-----------------------|
Ab:-----------------------|
Eb:-----------------------|

solo 3
                                              DRUMS
eb:------------------------------------------*--------*---------------------|
Bb:-------------------------3--5-------------*--------*---------------------|
Gb:-4b~~~~~~~~~~~~~~~----4--------4b~~~~~~~~-*--------*---------------------|
Db:------------------------------------------*--------*---------------7-9-10|
Ab:------------------------------------------*--------*--------7-8-10-------|
Eb:------------------------------------------*--------*-7-8-10--------------|

eb:---------------------9AH-------------------------------------------------|
Bb:-------------------------------------------------------------------------|
Gb:7-9-10--9vib~~~~~~-------------------------------------------------------|
Db:-------------------------------------------------------------------------|
Ab:---------------------------7h8h10-10-10-7h8h10--10-10--7--10-10-7h8h10-10|
Eb:-------------------------------------------------------------------------|

eb:------------7-10-8-7-----------------------------------------------------|
Bb:-5-7-----------------10-8-7----------------------------------------------|
Gb:------6vib.-----------------9-7--------------11--9---18b---16-17----16-17|
Db:--------------------------------9-7------------------------------17------|
Ab:------------------------------------9-7----------------------------------|
Eb:-------------------------------------------------------------------------|

eb:-----------------------19b--19vib~~~~~~~---16-19-17-16-------------------|
Bb:-16----------------16----------------------------------19-17-16----------|
Gb:----17-16----16-17----------------------------------------------18-16-15-|
Db:----------17-------------------------------------------------------------|
Ab:-------------------------------------------------------------------------|
Eb:-------------------------------------------------------------------------|
eb:---------------------------------------|
Bb:---------------------------------------|
Gb:16-15----------------------------------|
Db:------18-17-15-17-15-------------------|
Ab:---------------------18-17-15-17-15----|
Eb:------------------------------------17-|


Important: The song above is NOT stored on the Chordie server. The original song is hosted at www.xguitar.com. Chordie works as a search engine and provides on-the-fly formatting. Chordie does not index songs against artists'/composers' will. To remove this song please click here.

This song is displayed as text-only. Transposing and tuning is only available for chordpro-songs.

Login - add to songbook

Rating click stars to rate

Layout
Accuracy

SHARE PAGE  




You need to log in to post comments