Behold! The Night Mare

Smashing Pumpkins

 Dsus2Dsus2/ADsus2/F#Bm7Dsus2/G
E| 0     0       0        x   0
B| 3 3 3 3 3
G| 2 2 2 2 2
D| 0 0 0 0 0
A| x 0 (0) 2 x
E| x x 2 x 3
Fig1
|-----------------------------------------------------------------------------------|
|----------------------------------0-------------------0------------------0---------|
|---2-2---0-2-----2-1----1-2---------2-0-2---------------2-0-2--------------2-0-2---|
|-----------------------------------------------------------------------------------|
|-----------------------------------------------0------------------0----------------|
|-2-----3-------0-----4-------3----3--------2-3---4-3--3--------2-3--4-3--3---------| 

Fig1, Cont.
|-----------------------------------------------|
|-----------------------------------------------|
|-----------------------------------------------|
|-----------------------------------------------|
|-----0----------0-------0-------0-------0------|
|-2-3---4-3--3-----2-3-----2-3------2-3----4-3--| 

|Dsus2/A |Dsus2/A |Dsus2/A |Dsus2/A |
 Dsus2/F#Dsus2/A
 I've faced fathoms in your deep
 Dsus2/F#Dsus2/A
 whisper the sinners quiet sleep
 Dsus2/F#Dsus2/GDsus2Dsus2/GDsus2
 pulled down the heavens just to please  you    appease  you
 Dsus2/GDsus2Dsus2/GDsus2
the wind    blows and I       go
|Dsus2/A |Bm7 |
 Dsus2/ABm7Dsus2/A
I can't go on taking roses from your grave
 Bm7Dsus2/A
to linger on beyond the beyond
 Bm7
where the willows weep
 Dsus2/ABm7
and the world will sleep you'll find me
 Dsus2/GDsus2Dsus2/GDsus2
as cool    sky   reflects the time
 Dsus2/ADsus2/F#
And the nightmare rides on
 Dsus2/ADsus2/F#
and the nightmare rides on
 Dsus2/ADsus2/F#
with a silver back song
 Dsus2/ADsus2/F#
and the nightmare rides on
 Dsus2/GDsus2Dsus2/GDsus2
 What I  fear is lost    here
 Dsus2/GDsus2Dsus2/GDsus2
 the wind blows and I       know
Fig1
All you have to do
is run away and steal yourself from me
become a mystery to gaze into
you're so cruel in all you do
but still I believe I believe
|Dsus2/A |Bm7 |Dsus2/A |Bm7 |
|Dsus2/A |Bm7 |Dsus2/A |Bm7 |
 Dsus2/A
 so many ?
 Dsus2/A
 you'll never take me alive
 Dsus2/A
 with all the force of what is true
 Dsus2/A
 is there nothing I can do
 Dsus2/ABm7Dsus2/A
I can't go on taking roses from your grave
 Bm7Dsus2/A
to linger on beyond the beyond
 Bm7
where the willows weep
 Dsus2/ABm7
and the world will sleep you'll find me
 Dsus2/ADsus2/F#
And the nightmare rides on
 Dsus2/ADsus2/F#
and the nightmare rides on
 Dsus2/ADsus2/F#
with a silver back song
 Dsus2/ADsus2/F#
and the nightmare rides on
 Dsus2/ADsus2/F#Dsus2/A
          I've faced fathoms in your deep
 Dsus2/F#Dsus2/A
 whisper the sinners quiet sleep
 Dsus2/F#Dsus2/A
 pulled down the heavens just to please
 Dsus2/ADsus2Dsus2/F#Dsus2Dsus2/F#Dsus2
 to hold the flower up in peace     
version 2
---------

Tabbed by Michael Ries
Use standard tuning for this one.
At the slow part where it's kind of barber shop style
I couldn't get right so if you know the correct way could you mail
me or I will try some more to figure it out.
INTRO
 Dsus2/A
         VERSE
 Dsus2/F#Dsus2/A
 I've faced the fathoms in your deep
 Dsus2/F#Dsus2/A
 withstood the suitore quiet siege
 Dsus2/F#Dsus2/GDsus2
 pulled down the heavens just to please you
 Dsus2/GDsus2Dsus2/GDsus2Dsus2/GDsus2
 appease you the wind blows ans I know 
 Asus2Bm7
 I can't go on digging roses from your grave
 Asus2Bm7
 to linger on beyond the beyond
 Asus2Bm7Asus2
 where the willows weep and the whirlpools sleep
 Bm7
you'll find me
 Dsus2/GDsus2Dsus2/GDsus2
 the coarse tide reflects the sky
 Dsus2Dsus2/F#
 and the night mare rides on
 Dsus2Dsus2/F#
 and the night mare rides on
 Dsus2Dsus2/F#
 with a december black psalm
 Dsus2Dsus2/F#
 and the might mare rides on
 Dsus2/GDsus2Dsus2/GDsus2
 what I fear is lost here
 Dsus2/GDsus2Dsus2/GDsus2
 the wind blows and I know
Fill 1(this part i'm not sure about)
|-----------------------------------------------------------------
|-----------------------------------------------------------------
|---2-2---0-2----1-2---2-2----2-2---2-0------4-2-0-2--
|-----------------------------------------0----------------------
|-----------------0----------------------------------------------
|-2-----3---------------1------0------------------------------

BRIDGE-w/fill 1
all you have to do is run away
and steal yourself from me become a mystery
to gaze into you're so cruel in all you do
but I still Believe I believe you
 Dsus2/A-Dsus2/F#Dsus2/G
                  so may you come with your own knives
 Dsus2/G
 you'll never take me alive
 Dsus2/G
 with all the force of what is true
 Dsus2/G
 is there nothing I can do
 Asus2Bm7
 I can't go on digging roses from your grave
 Asus2Bm7
 to linger on beyond the beyond
 Asus2Bm7Asus2
 where the willows weep and the whirlpools sleep
 Bm7
 you'll find me
 Dsus2Dsus2/F#
 and the night mare rides on
 Dsus2Dsus2/F#
 and the night mare rides on
 Dsus2Dsus2/F#
 with a december black psalm
 Dsus2Dsus2/F#
 and the might mare rides on
 Dsus2/F#Dsus2/A
 I've faced the fathoms in your deep
 Dsus2/F#Dsus2/A
 withstood the suitore quiet siege
 Dsus2/F#Dsus2/A
 pulled down the heavens just to please you
 Dsus2/F#Dsus/A
 to hold the flower I can't keep
 Dsus2/F#-Dsus/A
                 Corrections,comments,or questions can be mailed to zero69mr@aol.com                           
u


Asus2 Bm7 Dsus/A Dsus2 Dsus2/A Dsus2/F# Dsus2/G
variations - click chord images
Transpose chords:
Tuning:
Cool service:
View: Size:
A  A  A
Rating:
Layout:
  • Currently 2/5 Stars.
  • 1
  • 2
  • 3
  • 4
  • 5
 
Accuracy:
  • Currently 2.6/5 Stars.
  • 1
  • 2
  • 3
  • 4
  • 5
 
click stars to rate
Chordie recommends:
Learn to play guitar with video-based, online guitar lessons at JamPlay.com
Songbook:
Login to add this song to your songbook
Support the artist
Preview/buy this song
MSN Music
Why this non-profit ad?

 
login to add comments/video/corrections