"yes"; ?> Tear by Smashing Pumpkins - guitar chords, guitar tabs and lyrics - chordie
 EmAmDsus2CCmaj7G
E| 0  0  0     0  0     3
B| 0 1 3 1 0 3
G| 0 2 2 0 0 0
D| 2 2 0 2 2 0
A| 2 0 x 3 3 2
E| 0 x x x x 3
Fig1
|-3-2-0----------|
|-------3-1-1-0--|
|----------------|
|----------------|
|----------------|
|----------------|

Fig2
|-3-2-0----------|
|-------3-1-1-3--|
|----------------|
|----------------|
|----------------|
|----------------|

Fig3
 G
|---------------------------------------------------------------|
|-0--------------------------3-0---------------------------3-0--|
|------------------0-------2---------------------0-------2------|
|-------0-4------0-------0------------0-4------0-------0--------|
|-----2--------2-------2------------2--------2-------2----------|
|---3--------3-------3------------3--------3-------3------------|

Fig3 (cont.)
 CCmaj7Cmaj7Dsus2
|-----------------------------0---0---------------------------------0---0--|
|--------------------------0--1---0---0--------------------------3--0---3--|
|----------------0-------2----0---0--------------------0-------2----0---2--|
|-----0-4------0-------0------2---2---------0-4------0-------0------2---0--|
|---2--------2-------2--------3---3-------2--------2-------2--------3---x--|
|-3--------3-------3--------------------3--------3-------3-----------------|

Note: chords shown in parenthesis are implied only as Billy sings acapella in that part
Fig1 over:
|Em Am |Em |
|Em Am |Em |
Fig2 over:
|Em Am |Dsus2 |
Fig1 over:
|Em Am |Em |
 EmAmEm
 the lights came on fast
 EmAmEm
 lost in motorcrash
 EmAmEm
 gone in a flash unreal
 EmAmEm
but you knew all along
 C
 you laugh the light
 Em
I sing the songs
 CDsus2
 to watch you numb
Em Am Em (with Fig1)
I saw you there
Em Am Em (with Fig1)
you were on your way
Em Am Dsus2 (with Fig2)
you held the rain and for the first time
Em Am Em (with Fig1)
heaven seemed insane
Em Am Em (with Fig1)
cause heaven is to blame
Em Am Em (with Fig1)
for taking you away
 EmAm
 do you know the way that I can?
 Dsus2Em
 do you know the way that I can't lose?
 EmAm
 do you know the things that I can?
 Dsus2Em
 do you know the things that I can't do?
 EmAm
 where is your heart?
 Dsus2Em
 where is your heart gone to?
 EmAm
 tear me apart
 Dsus2Em
 tear me apart from you
 CEm
 you laugh the light I cry the wound
 CDsus2
 in gray afternoons
Em Am Em (with Fig1)
I saw you there
Em Am Em (with Fig1)
you were on your way
Em Am Dsus2 (with Fig2)
you kissed me cold and for the first time
Em Am Em (with Fig1)
heaven seemed insane
Em Am Em (with Fig1)
for taking you away
Em Am Em (with Fig1)
cause heaven is to blame
 EmAmEm
for taking you 
Fig3
Fig1 over:
|Em Am |Em |
|Em Am |Em |
|Em Am |Em |
|Em Am |Em |
Em Am Em (with Fig1)
the lights came to pass
Em Am Em (with Fig1)
dead opera motorcrash
Em Am Em (with Fig1)
gone in a flash unreal
Em Am Em (with Fig1)
in nitrous overcast
 EmAm
 do you know the way that I can?
 Dsus2Em
 do you know the way that I can't choose?
 EmAm
 do you know the things that I can?
 Dsus2Em
 do you know the things that I can't lose?
 EmAm
 tear me apart
 Dsus2Em
 tear me apart from you
 EmAm
 where is your heart?
 Dsus2Em
 where has your heart run to?
version 2
---------

Tabbed by Michael Ries
Tuning: half step down
Great powerful song.Electric distorted sounds best.
If anyone knows who plays the drums on this track
could you tell me(zero69mr@aol.com)Enjoy.
Fill A
|------------------0---3-
|-8-7-5-3-1-1--0---0-
|------------------0---0-
|------------------2---2-
|------------------2---2-
|------------------0---0-

Fill B
|-------------------0---------0-2-
|-8-7-5-3-1-1---3----3--------
|-------------------2---2--2------
|-----------------------------------
|-----------------------------------
|-----------------------------------

INTRO
(w/fill A)
 Em-Am-Emadd9
 (w/fill A)
 Em-Am-Emadd9
 (w/fill B)
 Em-Am-Dsus2
 (w/fill A)
 Em-Am-Em
          the lights came on fast
lost in motorcrash
gone in a flash unreal
but you knew all along
you laugh the light I sing the songs
to watch you numb
(w/fill A)
 EMAmEmadd9
I saw you there  
(w/fill A)
 Emadd9EmAmEmadd9
 you were on your way  
(w/fill B)
 Emadd9EmAmDsus2
 You held the rain  
 Dsus2D
 and for the first time
(w/fill A)
 EmAmEmadd9
 heaven seemed insane
(w/fill A)
 EmAmEmadd9
cause heaven is to blame
(w/fill A)
 EmAmEmadd9
 for taking you away
 EmAm
 do you know the way that I can
 Dsus2Emadd9
 do you know the way that I can't lose
 EmAm
 do you know the things that I can
 Dsus2Emadd9
 do you know the things that I can't do
 EmAm
 where is your heart
 Dsus2Emadd9
 where has your heart gone to
 EmAm
 Tear me apart
 Dsus2Emadd9
 Tear me apart from you
 Cmaj7Emadd9
 you laugh the light I cry the wound
 Cmaj7Dsus2
 in grey afternoons
(w/fill A)
 EmAmEmadd9
I saw you there  
(w/fill A)
 Emadd9EmAmEmadd9
 you were on your way  
(w/fill B)
 Emadd9EmAmDsus2
 you kissed me cold  
 Dsus2
 and for the first time
(w/fill A)
 EmAmEmadd9
 heaven seemed insane
(w/fill A)
 EmAmEmadd9
 for taking you away
(w/fill A)
 EmAmEmadd9
 cause heaven is to blame
(w/fill A)
 EmAmEmadd9
 for taking you away
Bridge
|------------------------------------------------------------------
|-------------------------------3-------------------------------3-
|-0--------------------------2----0--------------------------2---
|-------0-4-----0-5-----0-------------0-4-----0-5-----0-----
|-----3-------3-------3--------------3-------3---------3-------
|---2-------2-------2--------------2-------2---------2---------
|----------------------------------0--0-----------------------------------0--0-
|------------------------------3--1--0-------------------------------3--0--3-
|-0-------------------------2----0--0--0--------------------------2----0--2-
|-------0-4-----0-5-----0------2--2--------0-4-----0-5-----0------2--0-
|-----3-------3-------3---------3--3------3-------3--------3---------3-----
|---2-------2-------2---------------------2-------2--------2------------------

(w/fill A)
 Em-Am-Emadd9
 (w/fill A)
 Em-Am-Emadd9
 (w/fill A)
 Em-Am-Emadd9
 (w/fill A)
 Em-Am-Emadd9
              (w/fill A)
 EMAmEmadd9
 the lights came to pass
(w/fill A)
 EmAmEmadd9
 dead opera motorcrash
(w/fill A)
 EmAmEmadd9
 gone in a flash unreal
(w/fill A)
 EmAmEmadd9
 nitrous overcast
 EmAm
 do you know the way that I can
 Dsus2Emadd9
 do you know the way that I can't choose
 EmAm
 do you know the things that I can
 Dsus2Emadd9
 do you know the things that I can't lose
 EmAm
 Tear me apart
 Dsus2Emadd9
 Tear me apart from you
 EmAm
 where is your heart
 Dsus2
 where has your heart run to
Questions,comments,or corrections can be mailed to zero69mr@aol.com
—


Am C Cmaj7 D Dsus2 Em Em Emadd9 G
variations - click chord images
Transpose chords:
Tuning:
Cool service:
View: Size:
A  A  A
Rating:
Layout:
  • Currently 2.1/5 Stars.
  • 1
  • 2
  • 3
  • 4
  • 5
 
Accuracy:
  • Currently 2/5 Stars.
  • 1
  • 2
  • 3
  • 4
  • 5
 
click stars to rate
Chordie recommends:
Learn to play guitar with video-based, online guitar lessons at JamPlay.com
Songbook:
Login to add this song to your songbook
Support the artist
Preview/buy this song
MSN Music
Why this non-profit ad?

 
login to add comments/video/corrections