"yes"; ?> The Aeroplane Flies High (Turns Left, Looks Right) by Smashing Pumpkins - guitar chords, guitar tabs and lyrics - chordie

The Aeroplane Flies High (Turns Left, Looks Right)

Smashing Pumpkins

º-----------------º-----------------º-----------------º-----------------º

º-----------------º-----------------º-----------------º-----------------º

º-----------------º-----------------º-----------------º-----------------º

º-6-6-6-6-6-6-6-6-º-6-6-6-6-9-9-4-4-º-0-2-2-2-2-2-2-2-º-0-0-0-0-2-0-1-0-º

º-6-6-6-6-6-6-6-6-º-6-6-6-6-9-9-4-4-º-0-2-2-2-2-2-2-2-º-0-0-0-0-2-0-1-0-º

º-6-6-6-6-6-6-6-6-º-6-6-6-6-9-9-4-4-º-0-2-2-2-2-2-2-2-º-0-0-0-0-2-0-1-0-º


Smashing Pumpkins - "The aeroplane flies high (turns left, looks right)"
Repeat throughout the whole song :
x8 x5 x3 x11 x2 x2 x1
|--2---1---0---6---9----4---4-----------------------------------------------
---------
|--2---1---0---6---9----4---4-----------------------------------------------
---------
|--3---2---1---7---10---5---5-----------------------------------------------
---------
|--4---3---2---8---11---6---6-----------------------------------------------
---------
|--4---3---2---8---11---6---6-----------------------------------------------
---------
|--2---1---0---6---9----4---0-----------------------------------------------
---------

(at some point the distortion kicks in (and later it goes off), you'll know
when just by
listening to the cd, it's a simple song, I don't know the solo !)
Basic Lyrics : (some repeats here and there, listen to the song and you'll
get it!)
*
"I really don't wanna look stupid when I`m sleeping"
"I never really liked sunny days"
"the black wings just reach out to me over a distance, and I can feel...the
wind from my wings"
"I see the clouds, I feel the ocean with my feet"
"and I`m home again..... (or something?)"
"requires an ability to judge distance"
"the aeroplane turns left, looks right"
love is a sentimental heart
life is a sentimental way
spy the fragile heart so cursed
as he walks across the earth
I`m disconnected by your smile
disconnect a million miles
and what you promies me
i hope will set you free
I`m disconnected by your smile
and all I gave to you is lost
and all you took from me is lost
black wings carry me so high
up to meet you in the sky
I`m disconnected by your smile
disconnect a million miles
and what you promies me
i hope will set you free
I`m disconnected by your smile
wishing you were real to me
wishing I could make belive
I`ll take my secrets to the grave
safely held beneath the waves
always knew I couldn't save
always knew I couldn't save you
* Billy speaks this in the start of the song over basic chord progession.
(also there is alot of mumbling in this song, but it isn't that important
to the song so I didn't care to include it)
Date: Mon, 10 Feb 1997 20:20:31 -0800
From: "Michael C. Welch"
Subject: Tab: The Aeroplane Flies High by The Smashing Pumpkins
Main Riff:(clean guitar, then dist. guitar) Repeat many times
E|----------------------------------------------------------------------
B|----------------------------------------------------------------------
G|------------------------------------2-2-2-2-2-2-2-2-2-2-2--5-5--------
D|-3-3-3-3-3-3-3-3--1-1-1-1-1--0-0-0--2-2-2-2-2-2-2-2-2-2-2--5-5--5-5--0
A|-3-3-3-3-3-3-3-3--1-1-1-1-1--0-0-0--0-0-0-0-0-0-0-0-0-0-0--3-3--5-5--0
E|-3-3-3-3-3-3-3-3--1-1-1-1-1--0-0-0--x-x-x-x-x-x-x-x-x-x-x-------5-5--0

Bridge Riff:(dist.guitar)
E|------------------------
B|------------------------
G|---------2--5-5--------- Repeat 3x i think
D|-3--1-0--2--5-5--5-5--0-
A|-3--1-0--0--3-3--5-5--0-
E|-3--1-0--x-------5-5--0-
End Riff:(dist. guitar)
E|---------------------------------
B|---------------------------------
G|---------------------------------
D|-1-1-1--0-0-0--7-7-7-7-7-7-7-7-7-
A|-1-1-1--0-0-0--7-7-7-7-7-7-7-7-7-
E|-1-1-1--0-0-0--7-7-7-7-7-7-7-7-7-

That's it! E-mail me! (mcwa@ix.netcom.com)
From Fender57@aol.com Fri Feb 28 16:19:45 1997
Date: Sun, 23 Feb 1997 23:23:41 -0500 (EST)
From: Fender57@aol.com
To: guitar@nevada.edu
Subject: The Aeroplane Flies High TAB
     ------------------------------------

The Aeroplane Flies High- by no other than B.C.
     ------------------------------------                         

** Transcribed by
Eric Agnew **
Printed by David Balogh
(fender57@aol.com)
To tell everyone the truth, every single tab for this song sucks! If
anybody wants an accurate transcription of this song, go to Eric Agnew
homepage, or get it right here. I'm doing everyone a favor. The main riff
goes like this:
E[----------------------------------------------------------------------------
-----------------------]
B[----------------------------------------------------------------------------
-----------------------]
G[----------------------------------------------------------------------------
-----------------------]
D[--3-3-3-3-3-3-3-3--1-1-1-1-1-0-0-0--7-7-7-7-7-7-7-7-7-7-7-10-10--5-5-0----]
A[--3-3-3-3-3-3-3-3--1-1-1-1-1-0-0-0--7-7-7-7-7-7-7-7-7-7-7-10-10--5-5-0----]
E[--3-3-3-3-3-3-3-3--1-1-1-1-1-0-0-0--7-7-7-7-7-7-7-7-7-7-7-10-10--5-5-0----]

Have fun. Eric also has every other song at his page!
"My car has a big engine, and if I go ninety in a 50mph zone, then I
won't get caught by the cops"
-Peter Spangler
and his Ford Granada
From Fender57@aol.com Fri Mar 7 16:48:36 1997
Date: Sun, 23 Feb 1997 23:23:41 -0500 (EST)
From: Fender57@aol.com
To: guitar@nevada.edu
Subject: The Aeroplane Flies High TAB
     ------------------------------------

The Aeroplane Flies High- by no other than B.C.
     ------------------------------------                         

** Transcribed by
Eric Agnew **
Printed by David Balogh
(fender57@aol.com)
To tell everyone the truth, every single tab for this song sucks! If
anybody wants an accurate transcription of this song, go to Eric Agnew
homepage, or get it right here. I'm doing everyone a favor. The main riff
goes like this:
E[----------------------------------------------------------------------------
-----------------------]
B[----------------------------------------------------------------------------
-----------------------]
G[----------------------------------------------------------------------------
-----------------------]
D[--3-3-3-3-3-3-3-3--1-1-1-1-1-0-0-0--7-7-7-7-7-7-7-7-7-7-7-10-10--5-5-0----]
A[--3-3-3-3-3-3-3-3--1-1-1-1-1-0-0-0--7-7-7-7-7-7-7-7-7-7-7-10-10--5-5-0----]
E[--3-3-3-3-3-3-3-3--1-1-1-1-1-0-0-0--7-7-7-7-7-7-7-7-7-7-7-10-10--5-5-0----]

Have fun. Eric also has every other song at his page!
"My car has a big engine, and if I go ninety in a 50mph zone, then I
won't get caught by the cops"
-Peter Spangler
and his Ford Granada


variations - click chord images
Transpose chords:
Tuning:
Cool service:
View: Size:
A  A  A
Rating:
Layout:
  • Currently 0/5 Stars.
  • 1
  • 2
  • 3
  • 4
  • 5
 
Accuracy:
  • Currently 1.4/5 Stars.
  • 1
  • 2
  • 3
  • 4
  • 5
 
click stars to rate
Chordie recommends:
Get acoustic guitar lessons and electric guitar lessons at JamPlay.com
Songbook:
Login to add this song to your songbook
Support the artist
Preview/buy this song
MSN Music
Why this non-profit ad?

 
login to add comments/video/corrections