Guitar Tabs, Chords and Lyrics


I Am One   Smashing Pumpkins



I Am One  -- Smashing Pumpkins (Corgan/Iha)

Transcribed by Chris Carman (cecarman@miavx1.acs.muohio.edu)

This is the best I can do with this song.  I only have an acoustic guitar, so
I can't tab out guitar solos very well.  Hope you like it.

4 bar drum intro

4 bars of bass: (repeat 2x)
-------------------------------------------------------
-------------------------------------------------------
-------------------------------------------------------
--2--0-0-2--0-2--0-0-0-2--0-2--0-0-2--0-2--0-0-0-2--0--

Guitar intro:                                    pick slide
--------------------0-----------------------0--------
--------0---------0-------------0---------0----------
------3---------3-------------3---------3------------
----4---------4-------------4---------4----------x\--
--4---------2-------------4---------2------------x\--
--2---------0-------------2---------0------------x\--
Main rhythm guitar part (verse):

|Billy (2x)
|----------------------------------------------------------------
|--11--9-9-11--9-11--9-9-9-14-14--11--9-9-11--9-11--9-9-9-14-16-- 

Important: The song above is NOT stored on the Chordie server. The original song is hosted at www.xguitar.com. Chordie works as a search engine and provides on-the-fly formatting. Chordie does not index songs against artists'/composers' will. To remove this song please click here.

This song is displayed as text-only. Transposing and tuning is only available for chordpro-songs.

Login - add to songbook

Rating click stars to rate

Layout
Accuracy

SHARE PAGE  




You need to log in to post comments