Chordie logo


Bullet With Butterfly Wings   Smashing Pumpkins



Tabbed by Brian McCall 

BULLET WITH BUTTERFLY WINGS - by Smashing Pumpkins as
====== ==== ========= =====   performed at the Double Door

All guitars tuned Eb, Ab, Db, Gb, Bb, Eb

"The world is a vampire..."

*1

G1 and G2 mid/light distortion

|---------------------------------------------------------
|---------------------------------------------------------
|-4-4-4-4-(4)----------2-2-2-2----------------------------
|-4-4-4-4--5--2--2-2-2-2-2-2-2----------------------------
|-2-2-0-2--5--2--2-2-2-0-0-0-0----------------------------
|----------3--0--0-0-0------------------------------------
                              ^repeat

*2
                          <   <
|---------------------------------------------------------
|---------------------------------------------------------
|-4-4-4-------------------2---2---------------------------
|-4-4-4-2-2-2-2-2-5-5-5-5-2-2-2-2-------------------------
|-2-2-2-2-2-2-2-2-5-5-5-5-0-0-0-0-------------------------
|-------0-0-0-0-0-3-3-3-3---------------------------------
                                 ^repeat
                          ^ that little "

Important: The song above is NOT stored on the Chordie server. The original song is hosted at www.xguitar.com. Chordie works as a search engine and provides on-the-fly formatting. Chordie does not index songs against artists/composers will. To remove this song please click here.

This song is displayed as text-only. Transposing and tuning is only available for chordpro-songs.

Login - add to songbook

Rating click stars to rate

Layout
Accuracy

SHARE PAGE  




You need to log in to post comments