Guitar Tabs, Chords and Lyrics


All My Problems    Smile Empty Soul



Tuning: Db Ab Db Gb Bb Eb

Intro (clean) 0:01
|----------------------------------------------------------------|
|----------------------------------------------------------------|
|----------------------------------------------------------------|
|-(0)-12p0---0--10p0--8p0---0--7p0--5p0--------------------------| Played 4 times
|-(0)-12p0---0--10p0--8p0---0--7p0--5p0--------------------------|
|-(0)-12p0---0--10p0--8p0---0--7p0--5p0--------------------------|

Verse (clean) 0:08
|------------------------------------------------------------------------|
|--------------------------------------------------------|  The 8 to 10--| riff is played
|------------------------------------------------------------------------| at the end of the verse each time
|-----10----0---------10----0----8888--10--------------------------------|
|---------8----------------8-------8888--10------------------------------|
|--0----------------0--------------8888--10------------------------------|

Pre-Chorus (clean) 0:25 (strumming pattern isn't exact)
|--------------------------------------------------------------------------------|
|--------------------------------------------------------------------------------|
|--------------------------------------------------------------------------------|
|-8-8-888-88--10-10-101010-1010--------------15---------14---------12--------10--| x2
|-8-8-888-88--10-10-101010-1010----------15---------14---------12--------10------|
|-8-8-888-88--10-10-101010-1010------15---------14---------12--------10----------|

Chorus A (Distortion) 0:42 (once again, strumming isn't exact)
|---------------------------------------------------------------------|
|---------------------------------------------------------------------|
|---------------------------------------------------------------------|
|-8-8-888-88--10-10-101010-1010-----0--0--12p0--0--10--1010-12--------|
|-8-8-888-88--10-10-101010-1010-----0--0--12p0--0--10--1010-12----x3--|
|-8-8-888-88--10-10-101010-1010-----0--0--12p0--0--10--1010-12--------|

End chorus on this
|---------------------------|
|---------------------------|
|---------------------------|
|----8-8-8-8--10------------|
|----8-8-8-8--10------------|
|----8-8-8-8--10------------|

Play Verse 0:55
Play Pre-Chorus 1:12

Chorus B 1:29 (strumming isn't exact)
|-------------------------------------------------------------------------------------|
|-------------------------------------------------------------------------------------|
|-------------------------------------------------------------------------------------|
|--88888888-10101010101010-----0---10--12-----------0---------------------------------| x3
|--88888888-10101010101010-----0---10--12--9/10\9----x2-------------------------------|
|--88888888-10101010101010-----0---10--12---------------------------------------------|

Bridge Intro 1:49 (clean)
|----------------------------------------------------------------|
|----------------------------------------------------------------|
|----------------------------------------------------------------|
|-(0)-12p0---0--10p0--8p0---0--7p0--5p0--------------------------| Played 4 times
|-(0)-12p0---0--10p0--8p0---0--7p0--5p0--------------------------|
|-(0)-12p0---0--10p0--8p0---0--7p0--5p0--------------------------|

Bridge (Distortion) 1:58
|---------------------------------------------------|
|---------------------------------------------------|
|---10----------9---------12------------------------|
|---x---x16 ---x--x8----x---x8----------------------|  x4
|---8-----------7---------10------------------------|
|---------------------------------------------------|
Post-Bridge 2:15
|-----------------------------------------------------------------------|
|-----------------------------------------------------------------------|
|-----------------------------------------------------------------------|
|-0--10--12------------0----------121212---101010--121212--10--8888--5--|
|-0--10--12---9/10\9------x3----121212--101010--121212--10--8888--5-----|
|-0--10--12------------------------121212--101010--121212--10--8888--5--|

Chorus 2:24 x5

Outro Riff 3:05
|------------------------------------------------------------------------------------|
|------------------------------------------------------------------------------------|
|------------------------------------------------------------------------------------|
|---121212--101010--121212---8888--10---5-----8---5--1~------------------------------|
|---121212--101010--121212---8888--10---5-----8---5--1~------------------------------|
|---121212--101010--121212---8888--10---5-----8---5--1~------------------------------|

KEY:

~ = let ring
/ = slide up


Important: The song above is NOT stored on the Chordie server. The original song is hosted at www.xguitar.com. Chordie works as a search engine and provides on-the-fly formatting. Chordie does not index songs against artists/composers will. To remove this song please click here.

This song is displayed as text-only. Transposing and tuning is only available for chordpro-songs.

Login - add to songbook

Rating click stars to rate

Layout
Accuracy

SHARE PAGE  




You need to log in to post comments