Chordie logo


Get Some    Snot



-------------------------------------------------------------------------
Snot
Song Name: Get Some
Tuning: Tune 1/2 step down
-------------------------------------------------------------------------
Tabbed by Brian (Munky266@aol.com)
http://bandtabs.cjb.net

Verse - Guitar 1
----6---------6------------6--------6------------------------
-------7--------8------------7--------8------7-7-7-----------
--7----6----7-----7-6----7---6-----7-----7-6-6-6-6-----------
-------------------------------------------------------------
-------------------------------------------------------------
-------------------------------------------------------------

Verse - Guitar 2
-----14-17-14----14-17-14----14-17-14----14-17-14----------R--
--14----------14----------13----------13-------------------E--
-----------------------------------------------------------P--
-----------------------------------------------------------E--
-----------------------------------------------------------A--
-----------------------------------------------------------T--

"My Soul has died"
--------------------------------------------------------------
--------------------------------------------------------------
-11-9--6--5--4------------------------------------------------
-11-9--6--5--4--3333-xxxx-33334-------------------------------
-9--7--4--3--2--3333-xxxx-33334-------------------------------
----------------1111-xxxx-11112-------------------------------
Bridge
-----------------------------------
-----------------------------------
-----------------------------------   Play twice
-----------------------------------
-4--7--10-2--4-------4--7--2--2--4-
-2--5--8--0--2-------2--5--0--0--2-
     All Palm Muted

"Come and get it, come and get it, Get some!"
---------------------------------------------
---------------------------------------------
---------------------------------------------
---------------------------------------------
-4--7--10-2--4------4--7--2--2--4------------
-2--5--8--0--2------2--5--0--0--2------------



Important: The song above is NOT stored on the Chordie server. The original song is hosted at www.xguitar.com. Chordie works as a search engine and provides on-the-fly formatting. Chordie does not index songs against artists/composers will. To remove this song please click here.

This song is displayed as text-only. Transposing and tuning is only available for chordpro-songs.

Login - add to songbook

Rating click stars to rate

Layout
Accuracy

SHARE PAGE  




You need to log in to post comments