Guitar Tabs, Chords and Lyrics


Anti-Fashion    Social Distortion



Tabbed By MAtt Shepard

Verse : x4
| ---------------- |
| ---------------- |
| --7--5--9--7---- |
| --7--5--9--7---- |
| --5--3--7--5---- |
| ---------------- |

Chorus : x2
| ------------- |
| ------------- |
| --------5---- |
| --5--3--5---- |
| --5--3--3---- |
| --3--1------- |

Verse : x4
| ---------------- |
| ---------------- |
| --7--5--9--7---- |
| --7--5--9--7---- |
| --5--3--7--5---- |
| ---------------- |

Chorus : x2
| ------------- |
| ------------- |
| --------5---- |
| --5--3--5---- |
| --5--3--3---- |
| --3--1------- |

Verse : x4
| ---------------- |
| ---------------- |
| --7--5--9--7---- |
| --7--5--9--7---- |
| --5--3--7--5---- |
| ---------------- |

Chorus : x5
| ------------- |
| ------------- |
| --------5---- |
| --5--3--5---- |
| --5--3--3---- |


Important: The song above is NOT stored on the Chordie server. The original song is hosted at www.xguitar.com. Chordie works as a search engine and provides on-the-fly formatting. Chordie does not index songs against artists'/composers' will. To remove this song please click here.

This song is displayed as text-only. Transposing and tuning is only available for chordpro-songs.

Login - add to songbook

Rating click stars to rate

Layout
Accuracy

SHARE PAGE  




You need to log in to post comments