Guitar Tabs, Chords and Lyrics


A Place in My Heart    Social Distortion



Tabbed BY Matt shepard

Intro
| ---------------------- |
| ---------------------- |
| -----------5-----5---- |
| --7---3----5-5---5-5-- |
| --7---3----3-5---3-5-- |
| --5---1------3-----3-- |

Verse : x4
| ---------------------- |
| ---------------------- |
| ---------5------5----- |
| --7--3---5--5---5--5-- |
| --7--3---3--5---3--5-- |
| --5--1------3------3-- |
PM....

Chorus :
| ------------------------- |
| ------------------------- |
| ------------------------- |
| --7--2---7--2---7--3--2-- |
| --7--2---7--2---7--3--2-- |
| --5--0---5--0---5--1--0-- |



Important: The song above is NOT stored on the Chordie server. The original song is hosted at www.xguitar.com. Chordie works as a search engine and provides on-the-fly formatting. Chordie does not index songs against artists'/composers' will. To remove this song please click here.

This song is displayed as text-only. Transposing and tuning is only available for chordpro-songs.

Login - add to songbook

Rating click stars to rate

Layout
Accuracy

SHARE PAGE  




You need to log in to post comments