Guitar Tabs, Chords and Lyrics


Magic Dragon    Sodom



SODOM - MAGIC DRAGON
(Agent Orange, 1989)

Key
= after note = vibrato
^ after note = heavy vibrato
\ = slide down
/ = slide up
+ = tap
h = hammer
p = pull
n = natural harmonic
s = pinching harmonic (squeal)
* = tremolo pick
t = trill
b = bend
|-3-| = triplet

n number above the tab = play the first part then the first finishing part
			 play the first part a second time and then play the second finishing part
			 etc.

Intro

E ------------------------------------------------------------------------
B ------------------------------------------------------------------------
G ------------------------------------------------------------------------
D -2-2--------------------------------3-3---------------2-2---------------
A -2-2--------------2-2---------------3-3---------------2-2---------------
E -0-0--------------3-3---------------1-1---------------0-0---------------

E -----------------------------------------------------------------------------------------------------
B -----------------------------------------------------------------------------------------------------
G -----------------------------------------------------------------------------------------------------
D -2-2-------------------------------------------------------------3-3-----------------------------2-2-
A -2-2-----------------------------2-2-----------------------------3-3-----------------------------2-2-
E -0-0-0-0-0-0-0-0-0-0-0-0-0-0-0-0-3-3-3-3-3-3-3-3-3-3-3-3-3-3-3-3-1-1-1-1-1-1-1-1-1-1-1-1-1-1-1-1-0-0-

Riff 1

E -----------------------------------------------------------------------
B -----------------------------------------------------------------------
G -----------------------------------------------------------------10--9-
D -2--2-----2-------2-------------3--2-------2-------2-------------10--9-
A -2--2-----2-------2-------2-----3--2-------2-------2-------2-----8 --7-
E -0--0-0-0-0-0-0-0-0-0-0-0-3-0-0-1--0-0-0-0-0-0-0-0-0-0-0-0-3-0-0-------

E -----------------------------------------------------------
B -----------------------------------------------------------
G -9---------------------------------------------------------
D -9-----2-------2-------------3--2-------2-------2-----3-3--
A -7-----2-------2-------2-----3--2-------2-------2-----3-3--
E ---0-0-0-0-0-0-0-0-0-0-3-0-0-1--0-0-0-0-0-0-0-0-0-0-0-1-1--

Riff 2

E ---------------------------------
B ---------------------------------
G ---------------------------------
D -8--8-----8-7-5-2--2-------2-----
A -8--8-----8-7-5-2--2-------2-----
E -6--6-6-6-6-5-3-0--0-0-0-0-0-0-0-

Riff 2A

E ------------------
B ------------------
G ------------------
D -8--8-----8-7-5-2-
A -8--8-----8-7-5-2-
E -6--6-6-6-6-5-3-0-

Riff 3

E -------------------------------------------------------------------------------
B -------------------------------------------------------------------------------
G -2--------------------5------4-------------------------------------------------
D -2--------------------5------4------3--------------------2-3-------------------
A ----00-00-00-00-00-00----0-0----0-0-3--------------------2-3-------------------
E ------------------------------------1--11-11-11-11-11-11-0-1-11-11-11-11-11-11-

Riff 4

E -------------------------------------------------------------------------------------------------
B -------------------------------------------------------------------------------------------------
G -------------------------------------------------------------------------------------------------
D -------------------------------------------------------------------------------------------------
A -------------------------------------------------------------------------33-33-33-33-22-22-22-22-
E -00-00-00-00-00-00-00-00-00-00-00-00-00-00-55-55-44-44-44-44-44-44-44-44-------------------------

Riff 4A

E -----------------------------------------------------------------
B -----------------------------------------------------------------
G -------------------------------------------------------5----4----
D -------------------------------------------7--6--------5----4----
A -------------------------------------------7--6--------3----2----
E -00-00-00-00-00-00-00-00-00-00-00-00-00-00-5--4------------------

Riff 5

E --------------------------------------------------------------------------------
B --------------------------------------------------------------------------------
G ----------------------------------------------------------------------4----5----
D -------------------------------------------5--------------------------4----5----
A -------------------------------------------5--------------------------2----3----
E -22-22-22-22-22-22-22-22-22-22-22-22-22-22-3--22-22-22-22-22-22-22-22-----------

E --------------------------------------------------------------------------------------
B --------------------------------------------------------------------------------------
G --------------------------------------------------------------------------------------
D -------------------------------------------5--------------------------3-------3-------
A -------------------------------------------5--------------------------3-------3-------
E -22-22-22-22-22-22-22-22-22-22-22-22-22-22-3--22-22-22-22-22-22-22-22-1-1-1-1-1-1-1-1-

Riff 6

E ---------------------------------
B ---------------------------------
G ---------------------------------
D -3-------3-------3-------3-------
A -3-------3-------3-------3-------
E -1-1-1-1-1-1-1-1-1-1-1-1-1-1-1-1-

Riff 7

E ---------------------------------------------------------------------------------
B ---------------------------------------------------------------------------------
G ---------------------------------------------------------------------------------
D ---------------------------------------------------------------------------------
A --------------------------------------------------------------------22-2---------
E -0-00-0-00-0-00-0-00-0-00-0-00-0-33-3-22-2-00-0-00-0-00-0-33-3-22-2------11-1-00-

Riff 7A

E ---------------------------------------------------------------------------------
B ---------------------------------------------------------------------------------
G ---------------------------------------------------------------------------------
D ---------------------------------------------------------------------------------
A --------------------------------------------------------------------55-5---------
E -3-33-3-33-3-33-3-33-3-33-3-33-3-66-6-55-5-33-3-33-3-33-3-66-6-55-5------44-4-44-

Fill 1

E ------------------
B ------------------
G ------------------
D -2----------------
A -2----------------
E -0----------------

Riff 8

E -------------------------------------
B -------------------------------------
G -------------------------------------
D -2------------------3----------------
A -2------------------3----------------
E -0---------------00-1----------------

Order

Intro x 1
Riff 1 x 2
Riff 2 x 3
Riff 2A x 1
Riff 1 x 2
Riff 2 x 3
Riff 2A x 1
Riff 3 x 4
Riff 4 x 3
Riff 4A x 1
Riff 3 x 4
Riff 4 x 3
Riff 4A x 1
SOlo over Riff 5 x 3
Riff 3 x 4
Riff 4 x 3
Riff 4A x 1
Solo over Riff 5 x 3
Riff 6 x 3
Riff 7 x 2
Riff 7A x 2
Riff 7 x 2
Riff 7A x 2
Fill 1 x 1
Riff 8 until fade



Important: The song above is NOT stored on the Chordie server. The original song is hosted at www.xguitar.com. Chordie works as a search engine and provides on-the-fly formatting. Chordie does not index songs against artists'/composers' will. To remove this song please click here.

This song is displayed as text-only. Transposing and tuning is only available for chordpro-songs.

Login - add to songbook

Rating click stars to rate

Layout
Accuracy

SHARE PAGE  




You need to log in to post comments