Better Off Dead

Sodom


Better off Dead As recorded by Sodom (from the Album Better Off Dead)
Music by Sodom
Tuning: Standard
INTRO
play 3 times
--------------------------------------------| --------------------------------------------| --------------------------------------------| --------------------------------------------| -2----------3----------4----------5---------| -0-0-0-0-0--1-1-1-1-1--2-2-2-2-2--3-3-3-3-3-|
FILL A
(h) whammy ---------| ---------| --5------| --5------| ---------| ---------|
play intro 3 times
FILL B
---------------| ---------------| ---------------| -9--10--11--12-| -7--8---9---10-| ---------------|
VERSE
------------------------------------|------------------------------------| ------------------------------------|------------------------------------| ------------------------------------|------------------------------------| ------------------------------------|------------------------------------| ------------------------------------|------------------------------------| -1-1-1-1--1-1-1-1--1-1-1-1--1-1-1-1-|-1-1-1-1--1-1-1-1--1-1-1-1--1-1-1-1-|
----------------------------------------------------------------| ----------------------------------------------------------------| ----------------------------------------------------------------| -------------------------------------------------------10-10--9-| -------------------------------------------------------8--8---7-| -0-0-0-0--0-0-0-0--0-0-0-0--0-0-0-0--0-0-0-0--0-0-0-0-----------|
------------------------------------|------------------------------------| ------------------------------------|------------------------------------| ------------------------------------|------------------------------------| ------------------------------------|------------------------------------| ------------------------------------|------------------------------------| -1-1-1-1--1-1-1-1--1-1-1-1--1-1-1-1-|-1-1-1-1--1-1-1-1--1-1-1-1--1-1-1-1-|
----------------------------------------------------------------| ----------------------------------------------------------------| ----------------------------------------------------------------| -------------------------------------------------------10-10--9-| -------------------------------------------------------8--8---7-| -0-0-0-0--0-0-0-0--0-0-0-0--0-0-0-0--0-0-0-0--0-0-0-0-----------|
------------------------------------|------------------------------------| ------------------------------------|------------------------------------| ------------------------------------|------------------------------------| ------------------------------------|------------------------------------| ------------------------------------|------------------------------------| -1-1-1-1--1-1-1-1--1-1-1-1--1-1-1-1-|-1-1-1-1--1-1-1-1--1-1-1-1--1-1-1-1-|
------------------------------------|------------------------------------| ------------------------------------|-------------------8--8--8--8--8--8-| ------------------------------------|-------------------7--7--7--7--7--7-| ------------------------------------|-------------------9--9--9--9--9--9-| ------------------------------------|-------------------7--7--7--7--7--7-| -0-0-0-0--0-0-0-0--0-0-0-0--0-0-0-0-|-0-0-0-0--0-0-0-0-------------------|
------------------------------------|------------------------------------| ------------------------------------|------------------------------------| ------------------------------------|------------------------------------| ------------------------------------|------------------------------------| ------------------------------------|------------------------------------| -1-1-1-1--1-1-1-1--1-1-1-1--1-1-1-1-|-1-1-1-1--1-1-1-1--1-1-1-1--1-1-1-1-|
------------------------------------|------------------------------------| ------------------------------------|------------------------------------| ------------------------------------|------------------------------------| ------------------------------------|------------------------------------| ------------------------------------|------------------------------------| -1-1-1-1--1-1-1-1--1-1-1-1--1-1-1-1-|-1-1-1-1--1-1-1-1--1-1-1-1--1-1-1-1-|
----------------------------------------------------------------| ----------------------------------------------------------------| ----------------------------------------------------------------| -------------------------------------------------------10-10--9-| -------------------------------------------------------8--8---7-| -0-0-0-0--0-0-0-0--0-0-0-0--0-0-0-0--0-0-0-0--0-0-0-0-----------|
------------------------------------|------------------------------------| ------------------------------------|------------------------------------| ------------------------------------|------------------------------------| ------------------------------------|------------------------------------| ------------------------------------|------------------------------------| -1-1-1-1--1-1-1-1--1-1-1-1--1-1-1-1-|-1-1-1-1--1-1-1-1--1-1-1-1--1-1-1-1-|
-----|-----|| -----|-----|| -----|-----|| -----|-----|| --4--|--5--|| --2--|--3--||
play intro 4 times play verse 1 time
CHORUS
-----|-----|-----|-----|-----|-----| -----|-----|-----|-----|-----|-----| -----|-----|-----|-----|-----|-----| --8--|--9--|--5--|--4--|-----|-----| --6--|--7--|--3--|--2--|--5--|--4--| -----|-----|-----|-----|--3--|--2--|
------------------------------------|------------------------------------| ------------------------------------|------------------------------------| ------------------------------------|------------------------------------| ------------------------------------|------------------------------------| ------------------------------------|------------------------------------| -0-0-0-0--0-0-0-0--0-0-0-0--0-0-0-0-|-0-0-0-0--0-0-0-0--0-0-0-0--0-0-0-0-|
-----|-----|------|------|-----|----------| -----|-----|------|------|-----|----------| -----|-----|------|------|-----|----------| --8--|--9--|--12--|--11--|--5--|--4-------|
--6--|--7--|--10--|--9---|--3--|--2--5--4-| --6--|--7--|--10--|--9---|-----|-----3--2-|
------------------------------------|------------------------------------|| ------------------------------------|------------------------------------|| ------------------------------------|------------------------------------|| ------------------------------------|------------------------------------|| ------------------------------------|------------------------------------|| -0-0-0-0--0-0-0-0--0-0-0-0--0-0-0-0-|-0-0-0-0--0-0-0-0--0-0-0-0--0-0-0-0-||
FILL C
------------------------------------|------------------------------------|| ------------------------------------|------------------------------------|| ------------------------------------|------------------------------------|| ------------------------------------|------------------------------------|| ------------------------------------|------------------------------------|| -0-0-0-0--0-0-0-0--0-0-0-0--0-0-0-0-|-5-5-5-5--5-5-5-5--3-3-3-3--3-3-3-3-||
play intro 3 times play fill b 1 time play verse 1 time play intro 4 times play chorus
SOLO RHYTHM 1
play 4 times, then solo begins play 4 more times
---------------------------|| ---------------------------|| ---------------------------|| ---------------------------|| -2-------3-------4-------5-|| -0--0-0--1--1-1--2--2-2--3-||
SOLO RHYTHM 2
play 4 times
--------|--------------------------------|| --------|--------------------------------|| --------|--------------------------------|| --------|--------------------------------|| --5--4--|-2-------3-------4-------5------|| --3--2--|-0--0-0--1--1-1--2--2-2--3--3-3-||
play solo rhythm 2 4 times (solo ends)
SOLO
bend* bend* bend* bend --(17)^19--(15)^17----------|-------------------------------------------| --------------------(15)^17-|-(15)^17-15-14----14-15--14----------------| ----------------------------|----------------16---------16-14--16-14-13-| ----------------------------|-------------------------------------------| ----------------------------|-------------------------------------------| ----------------------------|-------------------------------------------|
-----------------------------------------|-----------------------| -----------------------------------------|-----------------------| -12----12--------------------------------|-----------------------| ----14-----14-13-12--14-13-12-----12-----|-----------------------| -------------------------------14----14--|-13-12-----------------| -----------------------------------------|-------15---12--10--12-|
bend (or whammy) P H H P -----------------------------|-----------------------------------------------| -(17)^19--17--15-------------|-----------------------------------------------| -(16)^18--16--14----14-14----|-16-14----14-16----14-16---16-14---14-15-15-15-| -----------------16-------14-|-------16-------16-------16------16------------| -----------------------------|-----------------------------------------------| -----------------------------|-----------------------------------------------|
H P P --------12--------------------------------| -15--12-----15--14--12--14-15-14-12----12-| ------------------------------------14----| ------------------------------------------| ------------------------------------------| ------------------------------------------|
P P bend release P ------------------------------------------------| ----------------10-12----10-(10)^12^(10)--8--10-| -14-14-13-12--9--------9------------------------| ------------------------------------------------| ------------------------------------------------| ------------------------------------------------|
H P H P H P H P H P H P H P -14-15-14--14-15-14--14-15-14--14-15-14--14-15-14--14-15-14--14-15-14-| ----------------------------------------------------------------------| ----------------------------------------------------------------------| ----------------------------------------------------------------------| ----------------------------------------------------------------------| ----------------------------------------------------------------------|
bend release bend H H bend release P (h) -(14)^15^(14)--14-|-----------------------------------------------------| ------------------|-(15)^17--15-14-12--15-12-----12---------------------| ------------------|--------------------------14-----(14)^16^(14)-12--12-| ------------------|-----------------------------------------------------| ------------------|-----------------------------------------------------| ------------------|-----------------------------------------------------|
(h) (h) (h) whammy whammy whammy whammy -12^----|--------|--------|--------|| -12^----|--------|--------|--------|| --------|--------|--------|--------|| --------|-5------|-5------|--------|| --------|--------|--------|-5------|| --------|--------|--------|--------||
play chorus 2 times
OUTRO
------------------------------------|------------------------------------| ------------------------------------|------------------------------------| ------------------------------------|------------------------------------| ------------------------------------|------------------------------------| ------------------------------------|------------------------------------| -0-0-0-0--0-0-0-0--0-0-0-0--0-0-0-0-|-0-0-0-0--0-0-0-0--0-0-0-0--0-0-0-0-|
--------------------------------|--------------------------------| --------------------------------|--------------------------------| --------------------------------|--------------------------------| --------------------------------|--------------------------------| -2-------3-------4-------5------|-6-------7-------8-------9------| -0--0-0--1--1-1--2--2-2--3--3-3-|-4--4-4--5--5-5--6--6-6--7--7-7-|
slide --------------------------------------|---------|| --------------------------------------|---------|| --------------------------------------|---------|| --------------------------------------|---------|| -10------11------12---------13--------|--14\_---|| -8--8-8--9--9-9--10--10-10--11--11-11-|--12\_---||

variations - click chord images
Transpose chords:
Tuning:
Cool service:
View: Size:
A  A  A
Rating:
Layout:
  • Currently 0/5 Stars.
  • 1
  • 2
  • 3
  • 4
  • 5
 
Accuracy:
  • Currently 0/5 Stars.
  • 1
  • 2
  • 3
  • 4
  • 5
 
click stars to rate
Chordie recommends:
Learn how to play guitar at JamPlay.com
Songbook:
Login to add this song to your songbook
Support the artist
Preview/buy this song
MSN Music
Why this non-profit ad?

 
login to add comments/video/corrections