Guitar Tabs, Chords and Lyrics


Halloween   Sonic Youth



Halloween

Tuning: F# F# F# F# E B

one guitar just strums:

B---2--
E---2--
F#--0--
F#--0--
F#--0--
F#--0--

main riff:

B---------------0--------0------
E-----------------5---5----0----
F#----------7-------0--------0--
F#------------------------------
F#------7-----------------------
F#--0-0---0---------------------

repeat variations for entire vocal part

for the instrumental, one guitar begins playing this:

B------------------
E------------------
F#--7-7-7-7-7-7-7-- etc
F#--7-7-7-7-7-7-7--
F#--0-0-0-0-0-0-0--
F#--0-0-0-0-0-0-0--

the other begins playing this?:

B---0---0------
E---5---4---0--
F#--7---7---0--
F#--0---0---0--
F#-------------
F#-------------



Important: The song above is NOT stored on the Chordie server. The original song is hosted at www.xguitar.com. Chordie works as a search engine and provides on-the-fly formatting. Chordie does not index songs against artists'/composers' will. To remove this song please click here.

This song is displayed as text-only. Transposing and tuning is only available for chordpro-songs.

Login - add to songbook

Rating click stars to rate

Layout
Accuracy

SHARE PAGE  




You need to log in to post comments