Guitar Tabs, Chords and Lyrics


Back to the Primitive   Soulfly



Band: Soulfly
Song: Back to the Primitive
By Jonathan Bissonnette

Tuning B F# B E G# C#

Intro

Gtr.1
|-------------------------------------------------|
|-------------------------------------------------|
|-11-11-11-11-11-11-11-11-11-11-11-11-11-13-11----|
|-0--0--0--0--0--0--0--0--0--0--0--0--0--0--0--12-|
|-------------------------------------------------|
|-------------------------------------------------|

Gtr.2
|-------------------------------------|
|-------------------------------------|
|-------------------------------------|
|-0-----------------------------------|
|-0-----------------------------------|
|-0-----------------------------------|
  Let ring...........................


Riff 1
|------------|
|------------|
|------------|
|-1/3-3-3--0-|
|-1/3-3-3--0-|
|-1/3-3-3--0-|x3

|-------------------------|
|-------------------------|
|-------------6-6-6-6-6-6-|
|-1/3-3-3--0--6-6-6-6-6-6-|
|-1/3-3-3--0--4-4-4-4-4-4-|
|-1/3-3-3--0--------------|Last time

Riff 2
|-----------------------|
|-----------------------|
|-----------------------|
|-----------------------|
|-------------------2-1-|
|-1-0-0-1-0-0-1-0-0-2-1-|

Riff 3
|--------------------------|
|--------------------------|
|--------------------------|
|--------------------------|
|----------------------2-1-|
|-1-0--1-0--1-0--1-0-0-2-1-|
 ba ba ba ba bo ba ba bo Politic!


how the song is put together

Intro x8
riff 1 x2
riff 2 x2
riff 1 x2
riff 2 x4
riff 3 x8
Intro riff x8
riff 1 x2
riff 2 x2
riff 1 x2
riff 2 x4
riff 3 x8
bass line
riff 3 x12



Important: The song above is NOT stored on the Chordie server. The original song is hosted at www.xguitar.com. Chordie works as a search engine and provides on-the-fly formatting. Chordie does not index songs against artists'/composers' will. To remove this song please click here.

This song is displayed as text-only. Transposing and tuning is only available for chordpro-songs.

Login - add to songbook

Rating click stars to rate

Layout
Accuracy

SHARE PAGE  




You need to log in to post comments