Guitar Tabs, Chords and Lyrics


Pain   Soulfly



Soulfly - pain
Tuning - Drop D tuning, tuned down 1 and a half steps
Low to high = B F# B E G# C#
Transcribed by Mark Kerry

Key
b = bend

Use distortion throughout apart from the bridge
guitar two which uses some delay effect

Main riffa (guitar 1&2)
|----------------------------------------------|
|----------------------------------------------|
|---------------------------------------5------|
|---------------------------------------5------|
|-0-0-3-0---00-0-3-0--0------0-0--0-0-0-3------|
|-0-0-3-0---00-0-3-0--0-8b0--0-0--0-0-0--------|

Main riffb (guitar 1&2)
|----------------------------------------------|
|----------------------------------------------|
|----------------------------------------4-----|
|----------------------------------------4-----|
|-0-0-3-0---00-0-3-0--0------0-0--0-0-0--2-----|
|-0-0-3-0---00-0-3-0--0-7b0--0-0--0-0-0--------|

Play riff a then b

Chorus (guitar 1&2)
|----------------------------------------------|
|----------------------------------------------|
|----------------------------------------------|
|----------------------------------------------|
|-3--0--0-0--0-3--0--0-0--0-3--0--0-0--0-------|
|-3--0--0-0--0-3--0--0-0--0-3--0--0-0--0--3b0--|

Bridge (guitar 1)         then (guitar 2)
|------------------------|  |-1----------------|
|------------------------|  |---1--------------|
|------------------------|  |-----1------------|
|------------------------|  |------------------|
|-2---------4------1-----|  |------------------|
|-2---------4------1-----|  |------------------|



Important: The song above is NOT stored on the Chordie server. The original song is hosted at www.xguitar.com. Chordie works as a search engine and provides on-the-fly formatting. Chordie does not index songs against artists'/composers' will. To remove this song please click here.

This song is displayed as text-only. Transposing and tuning is only available for chordpro-songs.

Login - add to songbook

Rating click stars to rate

Layout
Accuracy

Jango Player

SHARE PAGE  




You need to log in to post comments