Guitar Tabs, Chords and Lyrics


Quilombo   Soulfly



"Quilombo" by Soulfly
Off their self titled debut album
Tabbed by Dom Alessio 

Tune down to B (B E A D F# B)

LEGEND:
	/ or \ - slide up or down
	~~     - vibrato
	p      - pull off
  	h	 - hammer on
 	b	 - bend
	N	 - natural harmonics
	A	 - artifical harmonics
	*	 - palm mute
	trem.  - tremelo pick
        ^	 - arpeggiate

----------------------------------------------------------------------------

Intro (it's an approximation on the 12's!)

B|---------------------------|
F|---------------------------|
D|---------------------------|
A|---------------------------|
E|---------------------------|
B|-12-12-12-12-12-12-0-------|

Intro/Verse (for Guitar Two)

B|----------------|
F|----------------|
D|----------------|
A|----------------|
E|-2-2--2-2-2-----|
B|-0-0--0-0-0-----|

The verse is backed by Guitar One repeating B on the 12th fret on 
the low B string 

Chorus

B|--------------------------------------|
F|------3-------3-----------------------|
D|------3-------3-----------------------|
A|--------------------------------------|
E|-2-2------2-2-----2-2-5-2-2-5---------|
B|-0-0------0-0-----0-0-3-0-0-3---------|

Outro

B|---------------|
F|---------------|
D|---------------|
A|---------------|
E|-2-2-5-6-8-9---|
B|-0-0-3-4-6-7---|

Live Outro (Soulfly covering "Exodus" by Bob Marley)

B|--------------------------|
F|--------------------------|
D|--------------------------|
A|--------------------------|
E|------------------3-------|
B|-3-4-5--5-3-5-3-5---5-----|

B|----------------------------------------------------------|
F|----------------------------------------------------------|
D|----------------------------------------------------------|
A|----------------------------------------------------------|
E|-5-6-7---5-6-7--5-6-7-----7-7-7/9-9-9/10-10-10/12/14\7----|
B|-3-4-5---3-4-5--3-4-5-----5-5-5/7-7-7/8--8--8-/10/12\5----|

----------------------------------------------------------------------------

Any suggestions, questions, additions, email me at dimebag@tpgi.com.au


Important: The song above is NOT stored on the Chordie server. The original song is hosted at www.xguitar.com. Chordie works as a search engine and provides on-the-fly formatting. Chordie does not index songs against artists'/composers' will. To remove this song please click here.

This song is displayed as text-only. Transposing and tuning is only available for chordpro-songs.

Login - add to songbook

Rating click stars to rate

Layout
Accuracy

SHARE PAGE  




You need to log in to post comments