Guitar Tabs, Chords and Lyrics


Face Pollution   Soundgarden



Member Name: the edge
Real Name: Alan Kells
E-mail: akdookie@hotmail.com

          INTRO:
          |--0--0-0--0-0----0--0--0--0----| Play 2 measures
          |--5--5-5--5-5----5--5--5--5----|
          |-------------------------------|
          |-------------------------------|
          |-------------------------------|
          |-------------------------------|

          VERSE
          |-------------------------------| This is played through the verse
except for
          |-------------------------------| the part where he sings, "I
don't feel like
          |-------------------------------| feelin....".
          |--8--8---7--7---6--6--6--------|
          |--8--8---7--7---6--6--6--------|
          |--6--6---5--5---4--4--4--------|

          After the first part of the verse, 4,3,2, is played on the second
string
          in the background until the end.

          BREAK: First the intro is played again, then he plays

          some scales w/ a trumpet in the background (sounds very cool!).

          I'm not sure about this part, but it goes something like this:

          |----------------------|-------------------------12-9----------|
          |--7-5-----------------|-------------------12-9----------------|
          |------7-5-------------|--------------9-11---------------------|
          |----------7-5-7-------|---------9-11--------------------------|
          |-----------------5-7--|-----9-11------------------------------|
          |----------------------|--12-----------------------------------|

          ...And so on, with the pattern varying little.  This is about the
             first part of it, with this the rest should be easy to figure out


Important: The song above is NOT stored on the Chordie server. The original song is hosted at www.xguitar.com. Chordie works as a search engine and provides on-the-fly formatting. Chordie does not index songs against artists'/composers' will. To remove this song please click here.

This song is displayed as text-only. Transposing and tuning is only available for chordpro-songs.

Login - add to songbook

Rating click stars to rate

Layout
Accuracy

SHARE PAGE  




You need to log in to post comments