Chordie logo

Jesus Christ Pose   Soundgarden



Soundgarden-Jesus Christ Pose
-Drop D Tuning-
-Your Soundgarden archive was seriously lacking,
 figured Id tab soem songs out-
-Inlyghtened1-


-Intro-
E-----------------------
B------------------4b---
G---------3h5p3p0-------
D-----------------------
A-----------------------
D--0--------------------

-Verse is Bass-

-Chorus-
E--------------------------------------------
B------11--11---11--11-----11--11---11--11---
G------13b-13b--13b-13b----13b-13b--13b-13b--
D--------------------------------------------
A--0-----------------------------------------
D--0-----------------------------------------

E--------------------------------------------
B------13--13---13--13-----13--13---13--13---
G------15b-15b--15b-15b----15b-15b--15b-15b--
D--------------------------------------------
A--------------------------------------------
D--------------------------------------------

E--------------------------------------------
B------15--15---15--15-----15--15---15--15---
G------17b-17b--17b-17b----17b-17b--17b-17b--
D--------------------------------------------
A--------------------------------------------
D--------------------------------------------

E--------------------------------------------
B-------9---9----9---9------9---9----9---9---
G------11b-11b--11b-11b----11b-11b--11b-11b--
D--------------------------------------------
A--------------------------------------------
D--------------------------------------------

-2ndChorus-
E----------------------------------------------------------
B----------------------------------------------------------
G----------------------------------------------------------
D-x-x-x-x-12-12-x-x-x-x-12-12--x-x-x-x-10-10-x-x-x-x-10-10-
A-x-x-x-x-12-12-x-x-x-x-12-12--x-x-x-x-10-10-x-x-x-x-10-10-
D-x-x-x-x-12-12-x-x-x-x-12-12--x-x-x-x-10-10-x-x-x-x-10-10-

-Interlude-(p.m.)
E-----------------------------------------
B-----------------------------------------
G-----------------------------------------
D-----------------------------------------
A--0--0-0-12-12-12-12-10-10-10-10--10-12--
D--0--0-0-12-12-12-12-10-10-10-10--10-12--

E-----------------------------------------
B-----------------------------------------
G-----------------------------------------
D-----------------------------------------
A--0--0-0-13-13-13-13-10-10-10-10--13-12--



Important: The song above is NOT stored on the Chordie server. The original song is hosted at www.xguitar.com. Chordie works as a search engine and provides on-the-fly formatting. Chordie does not index songs against artists/composers will. To remove this song please click here.

This song is displayed as text-only. Transposing and tuning is only available for chordpro-songs.

Login - add to songbook

Rating click stars to rate

Layout
Accuracy

SHARE PAGE  

You need to log in to post comments