Chordie logo

New Damage   Soundgarden



Artist - Soundgarden
Song - New Damage
Album - Badmotorfinger
Tabbed by an18nin18

G6 Tuning - D, G, D, G, B, E

Note - Tune the bottom two strings down a tone.

Intro

|-----------|-------------------------|
|-----------|-------------------0-----|
|-----------|-0-----------------0-0~~-|
|-----------|-0-----------------0-0~~-|
|-----------|-0-------------------0~~-|
|-2-2-3-2-0-|-5---4---3---2-3-2-------|

Verse

|-------------------------|
|-------------------0-----|
|-0-----------------0-0~~-|
|-0-----------------0-0~~-|
|-0-------------------0~~-|
|-5---4---3---2-3-2-------|

Chorus

|----------------------------------------------------|----------|
|----------------------------------------------------|----------|
|----------------------------------------------0-----|----------|
|-/12-12-12-12---/11-11-11-11---/10-10-10-10---5---8-|-------10-|
|----------------------------------------------0-----|----12----|
|-/12-12-12-12---/11-11-11-11---/10-10-10-10---5---8-|-10-------|
                                                     | Play x 4

|-------------------------|
|-------------------0-----|
|-0-----------------0-0~~-|
|-0-----------------0-0~~-|
|-0-------------------0~~-|
|-5---4---3---2-3-2-------|

|----------------------------------------------------|
|----------------------------------------------------|
|----------------------------------------------0-----|
|-/12-12-12-12---/11-11-11-11---/10-10-10-10---5---8-|
|----------------------------------------------0-----|
|-/12-12-12-12---/11-11-11-11---/10-10-10-10---5---8-|

Middle 8
             1,2,3|                                    4|
|-----------|-----|-------------------------------------|
|-----------|-----|-------------------------------------|
|-2/3---3/5-|-0~~-|-0~~---4---5---0---4---5-------------|
|-2/3---3/5-|-0~~-|-0~~---4---5---0---4---5-------------|
|-2/3---3/5-|-0~~-|-0~~---4---5---0---4---5-------------|
|-----------|-3~~-|-5~~-----------5-----------2-2-3-2-0-|
  Play x 4

Solo

|-----------------------------|-------------------------------------|
|-----------------------------|-------------------------------------|
|-----------------------------|-0~~---4---5---0---4---5-------------|
|---------------3h5-----------|-0~~---4---5---0---4---5-------------|
|-------------0-----5-3---0---|-0~~---4---5---0---4---5-------------|
|-/10-9-5-3-------------3---0-|-5~~-----------5-----------2-2-3-2-0-|
 ^This riff is so cool!

|-------------------------|
|-------------------0-----|
|-0-----------------0-0~~-|
|-0-----------------0-0~~-|
|-0-------------------0~~-|
|-5---4---3---2-3-2-------|

|----------------------------------------------------|----------|
|----------------------------------------------------|----------|
|----------------------------------------------0-----|----------|
|-/12-12-12-12---/11-11-11-11---/10-10-10-10---5---8-|-------10-|

|----------------------------------------------0-----|----12----|
|-/12-12-12-12---/11-11-11-11---/10-10-10-10---5---8-|-10-------|
                                                     | Play x 4

Outro

|-------------------------|-----|
|-------------------0-----|-----|
|-0-----------------0-0~~-|-0~~-|
|-0-----------------0-0~~-|-0~~-|
|-0-------------------0~~-|-0~~-|
|-5---4---3---2-3-2-------|-5~~-|
                          |

And Thats it



Important: The song above is NOT stored on the Chordie server. The original song is hosted at www.xguitar.com. Chordie works as a search engine and provides on-the-fly formatting. Chordie does not index songs against artists/composers will. To remove this song please click here.

This song is displayed as text-only. Transposing and tuning is only available for chordpro-songs.

Login - add to songbook

Rating click stars to rate

Layout
Accuracy

SHARE PAGE  

You need to log in to post comments