Blow Up The Outside World

Soundgarden

 EEEEECCCCCEEEEECCCCCEEEEECCCCCEEEEECCCCCEEEEECCCCCEEEEECCCCC
                                                                                     Nothing          seems to kilme,       
 EEEEE7E7E7E7Dsus2Dsus2Dsus2Dsus2Dsus2
  No matter how  hard   I     try_______.   
 Cadd9Cadd9Cadd9G5G5G5
                                           Nothing is closing my eyes.
e|-2------2------2--------------------------3--3-3---------------------|
B|-2---------------------------------4-4-4--3--3-3---------------------|
G|-3-----------------3---------------4-4-4--4--4-4---------------------|
D|-4------------------------4------4-4-4-4--5--5-5---------------------|
A|-4-----------------------------4---2-2-2--5--5-5---------------------|
E|-2--2-------2----------2-----2------------3--3-3---------------------|

Nothing can beat me down for your pain or delight____,
e|-0-----0---0--0---------0-0--0-0-----0--0-------0--0--------2--------|
B|-1-----1---1--1---------1-1--1-1-----1--1-------1--1--------2--------|
G|-0-----0---0--0------0--0-0--0-0-----0--0-----0-0--0--------3--------|
D|-2-----2---2--2-0h2-----2-2--2-2-----2--2-0h2---2--2--------4--------|
A|-3-----3---3--3---------3-3--0-0-----0--0-------0--0--------4--------|
E|------------------------------------------------------------2--------|

,no.
e|-------2---------------------------------|
B|-----------------2-----------------------|
G|---------------------------3-------------|
D|-----------------------------------------|
A|-----------------------------------------|
E|--2---------2---------2-----------2------|

 EEEEECCCCCEEEEECCCCC
              And nothing          seems to break me,       
e|---------------------------------------------------------------------|
B|---------------------------------------------------------------------|
G|---------------------------------------------------------------------|
D|----------------------(14br-b*)--------------------------------------|
A|---------------------[) - with distortion and delay]----------------|
E|---0--2h4p2p0--------------------------------------------------------|

*bend down one half step w/whammy bar
e|---------------------------------------------------------------------|
B|---------------------------------------------------------------------|
G|---------------------------------------------------------------------|
D|-----14h16p14\12----12--12-------------------------------------------|
A|-----------------14--------------------------------------------------|
E|---------------------------------------------------------------------|

 EEEEE7E7E7E7Dsus2Dsus2Dsus2Dsus2Dsus2
            No matter    how far    I   fall.    
e|---------------------------------------------------------------------|
B|---------------------------------------------------------------------|
G|---------------------------------------------------------------------|
D|12h14p12-------------------------------------------------------------|
A|--------14-----------------------------------------------------------|
E|---------------------------------------------------------------------|

 Cadd9Cadd9Cadd9G5G5G5
e|---------------------------------------------------------------------|
B|---------------------------------------------------------------------|
G|---------------------------------------------------------------------|
D|------------------14p12-------12--12--14/16--------------------------|
A|---------------------------14----------------------------------------|
E|---------------------------------------------------------------------|

Nothing can break me at all.
e|-------------2------2------2--------------------------3--3-3--|
B|-------------2---------------------------------4-4-4--3--3-3--|
G|-------------3-----------------3---------------4-4-4--4--4-4--|
D|-12h14p12----4------------------------4------4-4-4-4--5--5-5--|
A|---------14--4-----------------------------4---2-2-2--5--5-5--|
E|-------------2--2-------2----------2-----2------------3--3-3--|

Nothing for giving up, though not invincible, I know.
e|-0--0-0-0---------0-0----0-0--0--0-------0--0---2---2----------------|
B|-1--1-1-1---------1-1----1-1--1--1-------1--1---2-------2--------2---|
G|-0--0-0-0------0--0-0----0-0--0--0-----0-0--0---3-----------3----2---|
D|-2--2-2-2-0h2-----2-2----2-2--2--2-0h2---2--2---4----------------2---|
A|-3--3-3-3---------3-3----0-0--0--0-------0--0---4----------------0---|
E|------------------------------------------------2-2---2---2---2------|

| |
| |
e|---------------------------------------------------------------------|
B|---------------------------------------------------------------------|
G|---------------------------------------------------------------------|
D|--------------14-12-12/10--10-10-----------------14h16p14------------|
A|-------------------------12-----12-12-------14h16--------16-12-------|
E|---------------------------------------------------------------------|

I've given everything I need,
e|----------------------------------0-----0----------------------------|
B|----------------------------------1-----1----------------------------|
G|----2--2--2--2--2----2--2--2------0-----0----------------------------|
D|----2--2--2--2--2----2--2--2------2-----2----------------------------|
A|----0--0--0--0--0----0--0--0------3-----3----------------------------|
E|---------------------------------------------------------------------|

I'd give you every-thing I own,
e|-0---0----0---0--0--0-----0--x--x------------------------------------|
B|-1---1----1---1--1--1-----1--x--x------------------------------------|
G|-0---0----0---0--0--0-----0--x--x--------4----4----------------------|
D|-2---2----2---2--2--2-----2--x--x--------4----4----------------------|
A|-3---3----3---3--3--3-----3--x--x--------2----2----------------------|
E|-----------------------------------------2----2----------------------|

I'd give in if it could at least be ours alone.
e|---------------------------------------------------------------------|
B|---------------------------------------------------------------------|
G|-4---4----4--4--4-4-4--4--4--4-------------6--6--6--6-x-x-2-2-2------|
D|-4---4----4--4--4-4-4--4--4--4--5-----x-x--6--6--6--6-x-x-2-2-2------|
A|-2---2----2--2--2-2-2--2--2--2--5-----x-x--4--4--4--4-x-x-0-0-0------|
E|-2---2----2--2--2-2-2--2--2--2--3-----x-x--4--4--4--4-x-x------------|

I've given everything I could___ to blow it to hell and gone.
e|------------------------------0--0--0--0----0--0--0----0-0---x-x-----|
B|------------------------------1--1--1--1----1--1--1----1-1---x-x-----|
G|------2-----2--2-2-----2-x-x--0--0--0--0----0--0--0----0-0---x-x-3--3|
D|------2-----2--2-2-----2-x-x--2--2--2--2----2--2--2----2-2---x-x-4--4|
A|------0-----0--0-0-----0-x-x--3--3--3--3----3--3--3----3-3---x-x-4--4|
E|-----------------------------------------------------------------2--2|

Bur - row down in and blow up the out - side____,
e|-----------------------------------0--0---0---0---0---0---0---0------|
B|-----------------------------------0--0---0---1---1---1---1---1------|
G|3-3---3-3---3-3--3--3--3---1----1--1--1---1---0---0---0---0---0------|
D|4-4---4-4---4-4--4--4--4---2----2--2--2---2---2---2---2---2---2------|
A|4-4---4-4---4-4--4--4--4---2----2--2--2---2---3---3---3---3---3------|
E|2-2---2-2---2-2--2--2--2---0----0--0--0---0--------------------------|

Blow up the out - side____,
e|-----------0--0---0---0---0---0---0---0------|
B|-----------0--0---0---1---1---1---1---1------|
G|---1----1--1--1---1---0---0---0---0---0------|
D|---2----2--2--2---2---2---2---2---2---2------|
A|---2----2--2--2---2---3---3---3---3---3------|
E|---0----0--0--0---0--------------------------|

Blow up the out - side world____.
e|-----------0--0---0---0---0---0---0---0---0--------|
B|-----------0--0---0---1---1---1---1---1---0----3---|
G|---1----1--1--1---1---0---0---0---0---0---1----2---|
D|---2----2--2--2---2---2---2---2---2---2---2----0---|
A|---2----2--2--2---2---3---3---3---3---3---2--------|
E|---0----0--0--0---0-----------------------0--------|

 EEEEECCCCCEEEEECCCCC
 Someone               tried  to    tell   msomething,  
e|---------------------------------------------------------------------|
B|---------------------------------------------------------------------|
G|---------------------------------------------------------------------|
D|-----------12h14--12h14--12h14-14------------------16p14-12-12/14----|
A|--------/14----------------------------------------------------------|
E|---------------------------------------------------------------------|

 EEEEE7E7E7E7Dsus2Dsus2Dsus2Dsus2Dsus2
  Don't let   the world bring you down.    
e|---------------------------------------------------------------------|
B|---------------------------------------------------------------------|
G|------------------------------------12h14p12-------------------------|
D|--------------------------------------------14p12-12-14-12\11--------|
A|---------------------------------------------------------------------|
E|---------------------------------------------------------------------|

 Cadd9Cadd9Cadd9G5G5G5
                                           Nothing can do me in before    I do   myself,
e|-2------2------2--------------------------3--3-3---------------------|
B|-2---------------------------------4-4-4--3--3-3---------------------|
G|-3-----------------3---------------4-4-4--4--4-4---------------------|
D|-4------------------------4------4-4-4-4--5--5-5---------------------|
A|-4-----------------------------4---2-2-2--5--5-5---------------------|
E|-2--2-------2----------2-----2------------3--3-3---------------------|

So save it for your own_____ and the ones you can help,
e|-0-----0---0--0---------0-0--0-0-----0--0-------0--0--------2--------|
B|-1-----1---1--1---------1-1--1-1-----1--1-------1--1--------2--------|
G|-0-----0---0--0------0--0-0--0-0-----0--0-----0-0--0--------3--------|
D|-2-----2---2--2-0h2-----2-2--2-2-----2--2-0h2---2--2--------4--------|
A|-3-----3---3--3---------3-3--0-0-----0--0-------0--0--------4--------|
E|------------------------------------------------------------2--------|

| |
| |
e|---------------------------------------------------------------------|
B|--------------------------14/12--------------------------------------|
G|-----12/10----------------------14--12/10----------------------------|
D|----------12/10----------------------------------------------------14|
A|------------------------------------------------------------16-------|
E|---------------------------------------------------------------------|

,no.
e|-------2---------------------------------|
B|-----------------2---------------------2-|
G|---------------------------3-----------2-|
D|---------------------------------------2-|
A|---------------------------------------0-|
E|--2---------2---------2-----------2------|

| |
| |
e|-----------------------------------------|
B|-----------------------------------------|
G|-----------------------------------------|
D|-----------------------------14h16p14----|
A|---------------------------16---------12-|
E|-----------------------------------------|

I've given everything I need,
e|----------------------------------0-----0----------------------------|
B|----------------------------------1-----1----------------------------|
G|----2--2--2--2--2----2--2--2------0-----0----------------------------|
D|----2--2--2--2--2----2--2--2------2-----2----------------------------|
A|----0--0--0--0--0----0--0--0------3-----3----------------------------|
E|---------------------------------------------------------------------|

I'd give you every-thing I own,
e|-0---0----0---0--0--0-----0--x--x------------------------------------|
B|-1---1----1---1--1--1-----1--x--x------------------------------------|
G|-0---0----0---0--0--0-----0--x--x--------4----4----------------------|
D|-2---2----2---2--2--2-----2--x--x--------4----4----------------------|
A|-3---3----3---3--3--3-----3--x--x--------2----2----------------------|
E|-----------------------------------------2----2----------------------|

I'd give in if it could at least be ours alone.
e|---------------------------------------------------------------------|
B|---------------------------------------------------------------------|
G|-4---4----4--4--4-4-4--4--4--4-------------6--6--6--6-x-x-2-2-2------|
D|-4---4----4--4--4-4-4--4--4--4--5-----x-x--6--6--6--6-x-x-2-2-2------|
A|-2---2----2--2--2-2-2--2--2--2--5-----x-x--4--4--4--4-x-x-0-0-0------|
E|-2---2----2--2--2-2-2--2--2--2--3-----x-x--4--4--4--4-x-x------------|

I've given everything I could___ to blow it to hell and gone.
e|------------------------------0--0--0--0----0--0--0----0-0---x-x-----|
B|------------------------------1--1--1--1----1--1--1----1-1---x-x-----|
G|------2-----2--2-2-----2-x-x--0--0--0--0----0--0--0----0-0---x-x-3--3|
D|------2-----2--2-2-----2-x-x--2--2--2--2----2--2--2----2-2---x-x-4--4|
A|------0-----0--0-0-----0-x-x--3--3--3--3----3--3--3----3-3---x-x-4--4|
E|-----------------------------------------------------------------2--2|

Bur - row down in and blow up the out - side____,
e|-----------------------------------0--0---0---0---0---0---0---0------|
B|-----------------------------------0--0---0---1---1---1---1---1------|
G|3-3---3-3---3-3--3--3--3---1----1--1--1---1---0---0---0---0---0------|
D|4-4---4-4---4-4--4--4--4---2----2--2--2---2---2---2---2---2---2------|
A|4-4---4-4---4-4--4--4--4---2----2--2--2---2---3---3---3---3---3------|
E|2-2---2-2---2-2--2--2--2---0----0--0--0---0--------------------------|

Blow up the out - side____,
e|-----------0--0---0---0---0---0---0---0------|
B|-----------0--0---0---1---1---1---1---1------|
G|---1----1--1--1---1---0---0---0---0---0------|
D|---2----2--2--2---2---2---2---2---2---2------|
A|---2----2--2--2---2---3---3---3---3---3------|
E|---0----0--0--0---0--------------------------|

Blow up the out - side world____.
e|-----------0--0---0---0---0---0---0---0---0--------|
B|-----------0--0---0---1---1---1---1---1---0----3---|
G|---1----1--1--1---1---0---0---0---0---0---1----2---|
D|---2----2--2--2---2---2---2---2---2---2---2----0---|
A|---2----2--2--2---2---3---3---3---3---3---2--------|
E|---0----0--0--0---0-----------------------0--------|

Guitar solo
 EEEEECCCCCEEEEECCCCCEEEEECCCC
[C]
e|--------------------------------------------------------3-0-0---0----|
B|-------------------------0---0--------3---3--3/5------------3/5-5----|
G|----------------------2b--2b--2b--2/4---4----------------------------|
D|--0h2----------------------------------------------------------------|
A|---------------------------------------------------------------------|
E|---------------------------------------------------------------------|

with delay
 EEEEECCCCCEEEEECCCCCEEEEECCCCC
e|0--------------3---3--5bb-5bb-5b----3--3--3--------------------------|
B|5----------3/5---5--------------------5--5---5--5--5\---3------------|
G|-----------------------------------------------------/4---4-4\2--0---|
D|---------------------------------------------------------------------|
A|---------------------------------------------------------------------|
E|---------------------------------------------------------------------|

 EEEEECCCCCEEEEE
e|------------------------5---------------------0----------------------|
B|------------3---3-5bb-5b-5b--5--5--5----------1----------------------|
G|------0-2/4---4-------------------------2--2--0--2--2----------------|
D|-2--2-----------------------------------2--2--2--2--2----------------|
A|----------------------------------------0--0--3--0--0----------------|
E|---------------------------------------------------------------------|

Want to make it understood_______.
e|----------------------------------0------|
B|-3--------------------------------1------|
G|-2----------------------------2-2-0-2-2--|
D|-0----------------------------2-2-2-2-2--|
A|-0----------------------------0-0-3-0-0--|
E|-----------------------------------------|

Wanting, though i never would_____.
e|-----------------------------------------|
B|-3--------------------------------3------|
G|-2----------------------------2-2-2-2-2--|
D|-0----------------------------2-2-0-2-2--|
A|-0----------------------------0-0---0-0--|
E|-----------------------------------------|

Trying, though I know it's wrong___.
e|----0---------0----0---0--0----0---------------------------|
B|----0---------0----0---1--1----1-------------3-------------|
G|-1--1---------1----1---0--0----0---------2-2-2-2-2---------|
D|-2--2---------2----2---2--2----2---------2-2-0-2-2---------|
A|-2--2---------2----2---3--3----3---------0-0---0-0---------|
E|-0--0---------0----0---------------------------------------|

I'm blowing it to hell and gone.
e|------0---------0----0---0----0----0---------------------------|
B|------0---------0----0---1----1----1-------------3-------------|
G|-1----1---------1----1---0----0----0---------2-2-2-2-2---------|
D|-2----2---------2----2---2----2----2---------2-2-0-2-2---------|
A|-2----2---------2----2---3----3----3---------0-0---0-0---------|
E|-0----0---------0----0-----------------------------------------|

Wishing, though I never could
e|----0---------0------0---0--0----0---------------------------|
B|----0---------0------0---1--1----1-------------3-------------|
G|-1--1---------1------1---0--0----0---------2-2-2-2-2---------|
D|-2--2---------2------2---2--2----2---------2-2-0-2-2---------|
A|-2--2---------2------2---3--3----3---------0-0---0-0---------|
E|-0--0---------0------0---------------------------------------|

Blow up the out - side____,
e|-----------0--0---0---0---0---0---0---0------|
B|-----------0--0---0---1---1---1---1---1------|
G|---1----1--1--1---1---0---0---0---0---0------|
D|---2----2--2--2---2---2---2---2---2---2------|
A|---2----2--2--2---2---3---3---3---3---3------|
E|---0----0--0--0---0--------------------------|

Blow up the out - side____,
e|-----------0--0---0---0---0---0---0---0------|
B|-----------0--0---0---1---1---1---1---1------|
G|---1----1--1--1---1---0---0---0---0---0------|
D|---2----2--2--2---2---2---2---2---2---2------|
A|---2----2--2--2---2---3---3---3---3---3------|
E|---0----0--0--0---0--------------------------|

Blow up the out - side____,
e|-----------0--0---0---0---0---0---0---0------|
B|-----------0--0---0---1---1---1---1---1------|
G|---1----1--1--1---1---0---0---0---0---0------|
D|---2----2--2--2---2---2---2---2---2---2------|
A|---2----2--2--2---2---3---3---3---3---3------|
E|---0----0--0--0---0--------------------------|

Blow up the out - side____ world__
e|-----------0--0---0---0---0---0--------|
B|-----------0--0---0---1---1---1--------|
G|---1----1--1--1---1---0---0---0--------|
D|---2----2--2--2---2---2---2---2--------|
A|---2----2--2--2---2---3---3---3--------|
E|---0----0--0--0---0--------------------|

world________________________________________________________.
e|---------------------------------------------------------------------|
B|---------------------------------------------------------------------|
G|---------------------------------------------------------------------|
D|---------------------------------------------------------------------|
A|-14-14-14--14-14-10-10-10--10-10-14-14-14--14--14-10-10-10--10-10----|
E|-12-12-12--12-12--8--8--8---8--8-12-12-12--12--12--8--8--8---8--8----|

Blow up the outside, Blow up the outside,
e|---------------------------------------------------------------------|
B|---------------------------------------------------------------------|
G|---------------------------------------------------------------------|
D|---------------------------------------------------------------------|
A|-14-14-14--14-14-10-10-10--10-10-14-14-14--14--14-10-10-10--10-10----|
E|-12-12-12--12-12--8--8--8---8--8-12-12-12--12--12--8--8--8---8--8----|

Blow up the outside world.
e|-------------------------------------|
B|-------------------------------------|
G|-------------------------------------|
D|-------------------------------------|
A|-14-14-14--14-14-10-10-10--10-10-----|
E|-12-12-12--12-12--8--8--8---8--8-----|

Blow up the outside, | blow up the outside, | blow up the outside,
e|----------------------|---------------------- |----------------------|
B|----------------------|---------------------- |----------------------|
G|----------------------|----------------------.|----------------------|
D|-2--------------------|--2-------------------.|--2-------------------|
A|-2--------------------|--2------------------- |--2-------------------|
E|-0--------------------|--0------------------- |--0-------------------|

| play 9 times |
Blow up the outside, blow up the outside, blow up the outside,
e|---------------------------------------------------------------------|
B|---------------------------------------------------------------------|
G|---------------------------------------------------------------------|
D|-2-----------------------2-----------------------2-------------------|
A|-2-----------------------2-----------------------2-------------------|
E|-0-----------------------0-----------------------0-------------------|

feedback_______________ feedback_______________ feedback____________
Blow up the outside, blow up the outside...
e|--------------------------------------------------x------------------|
B|---------------------------------------------------------------------|
G|---------------------------------------------------------------------|
D|---------------------------------------------------------------------|
A|-(2)-----------------------------------------------------------------|
E|---------------------------------------------------------------------|

feedback________________________________________ microphonic feedback
Chords Used
 ECE7Dsus2Cadd9G5
e|-0-|   e|-0-|   e|-0-|   e|-0-|   e|-0-|   e|---|
B|-0-|   B|-1-|   B|-3-|   B|-3-|   B|-3-|   B|-3-|
G|-1-|   G|-0-|   G|-1-|   G|-2-|   G|-0-|   G|-0-|
D|-2-|   D|-2-|   D|-0-|   D|-0-|   D|-2-|   D|-0-|
A|-2-|   A|-3-|   A|-2-|   A|---|   A|-3-|   A|-x-|
E|-0-|   E|---|   E|-0-|   E|---|   E|---|   E|-3-|

Sent by Neil Griffith (irene@aei.ca).


C Cadd9 Dsus2 E E7 G5
variations - click chord images
Transpose chords:
Tuning:
Cool service:
View: Size:
A  A  A
Rating:
Layout:
  • Currently 3/5 Stars.
  • 1
  • 2
  • 3
  • 4
  • 5
 
Accuracy:
  • Currently 2.3/5 Stars.
  • 1
  • 2
  • 3
  • 4
  • 5
 
click stars to rate
Chordie recommends:
Learn to play guitar with video-based, online guitar lessons at JamPlay.com
Songbook:
Login to add this song to your songbook
Support the artist
Preview/buy this song
MSN Music
Why this non-profit ad?

 
login to add comments/video/corrections