Guitar Tabs, Chords and Lyrics


Half   Soundgarden



Half

    Riff A (Guitars 1,2,&3)                                                    
E-|----------------------------------|-------------------------------------|
G-|----10p9----9h10--9----0----------|-(0)-0--10p9----9h10--9---9----------|
G-|----10p9----9h10--9----0----------|-(0)-0--10p9----9h10--9---9----------|
C-|-0--------------------------------|-------------------------------------|
G-|----------------------------------|-------------------------------------|
C-|----------------------------------|-------------------------------------|
                                                                               
    Ryth. Fig 1 (Guitars 4 & 5) Played under Riff A                            
E-|----------------------------------|-------------------------------------|
G-|----------------------------------|-------------------------------------|
G-|----------------------------------|-------------------------------------|
C-|---0-------------------------0-0--|-(0)-0---------------------------0---|
G-|---0--5p0----3---------------0-0--|-(0)-0-5p0----3------------------0---|
C-|---0-------------------------0-0--|-(0)-0---------------------------0---|
                                                                               
    Ryth. Fig 1 (con't)  Played While Riff A is repeated a 2nd time            
E-|----------------------------------|-------------------------------------|
G-|----------------------------------|-------------------------------------|
G-|----------------------------------|-------------------------------------|
C-|-(0)-0------------------------0-0-|-(0)-0---------------------------0---|
G-|-(0)-0-5p0----3---------------0-0-|-(0)-0-5p0----3------------------0---|
C-|-(0)-0------------------------0-0-|-(0)-0---------------------------0---|
                                                                               
    1st & 2nd verses....(Ryth fig.2)                                           
E-|----------------------------------|-------------------------------------|
G-|----10p9----9h10--9----0----------|-(0)-0--10p9----9h10---9-------------|
G-|----10p9----9h10--9----0----------|-(0)-0--10p9----9h10---9-------------|
C-|-0--------------------------------|--------------------------------0----|
G-|----------------------------------|--------------------------------0----|
C-|----------------------------------|--------------------------------0----|
    ...hand__ my     love              in         I'll   be                    
                                                                               
E-|------------------------------------------------------------------------|
G-|----10------5-----5--5--5-----5--5--5-----5--5--------------------------|
G-|----10------5-----5--5--5-----5--5--5-----5--5--------------------------|
C-|----10---0--5-----5--5--5-----5--5--5-----5--5p0------------------------|
G-|----10---0--5-----5--5--5-----5--5--5-----5--5p0------------------------|
C-|----10---0--5-----5--5--5-----5--5--5-----5--5p0------------------------|
    done______________                                                         
   
   
   Ryth fig. 2a                                                        
E-|---------------------------------|--------------------------------------|
G-|---------------------------------|--------------------------------------|
G-|---------------------------------|--------------------------------------|
C-|-(0)---0--------------------0-0--|-(0)--0--------------------------0----|
G-|-(0)---0--5p0---3-----------0-0--|-(0)--0--5p0--3------------------0----|
C-|-(0)---0--------------------0-0--|-(0)--0--------------------------0----|
                                                                               
                                                                               
E-|------------------------------------------------------------------------|
G-|------------------------------------------------------------------------|
G-|------------------------------------------------------------------------|
C-|----10---0---5-----5--5--5-----5--5--5-----5--5p0-----------------------|
G-|----10---0---5-----5--5--5-----5--5--5-----5--5p0-----------------------|
C-|----10---0---5-----5--5--5-----5--5--5-----5--5p0-----------------------|
                                                                               
    (with riff A and ryth fig. 1)               Play 2 & 2a after he sings
E-|------------------------------------------------------------------------|
G-|------------------------------------------------------------------------|
G-|------------------------------------------------------------------------|
C-|------------------------------------------------------------------------|
G-|------------------------------------------------------------------------|
C-|------------------------------------------------------------------------|
    A____  hand__ed    glove__________    hides the door                       
    
    
    ChOrUs....(aka Ryth fig 3...all guitars play this)                         
E-|------------------------------------------------------------|
G-|-----8p7---8p7----/10--8p7---8----7--5----------------------|
G-|-----8p7---8p7----/10--8p7---8----7--5----------------------|
C-|---0-----0-----0--------------------------------------------|
G-|---0--------------------------------------------------------|
C-|---0--------------------------------------------------------|
                                                                               
                                                                               
E-|--------------------------------------------|
G-|-(5)-8p7---8p7---/10----8p7--5--------------|
G-|-(5)-8p7---8p7---/10----8p7--5-----0--------|
C-|---------0-----0-------------------0--5//---|
G-|-----------------------------------0--5//---|
C-|-----------------------------------0--5//---|
        Half   a   chance          half___                                     
                                                                               
E-|--------------------------------------------------|
G-|---10-------5-----5--5--5-----5--5--5-----5--5----|
G-|---10-------5-----5--5--5-----5--5--5-----5--5----|
C-|---10---0---5-----5--5--5-----5--5--5-----5--5p0--|
G-|---10---0---5-----5--5--5-----5--5--5-----5--5p0--|
C-|---10---0---5-----5--5--5-----5--5--5-----5--5p0--|
      a_____         chance____________                                        
                                                                               
E-|-------------||--------------|----------|--0------------------|----------|
G-|----0--------||-(0)----------|----------|-----0---------------|----------|
G-|----0--------||-(0)----------|----------|----------7----------|-(7)------|
C-|----0--------||-(0)----------|----------|---------------------|----------|
G-|----0--------||-(0)----------|----------|---------------------|----------|
C-|----0--------||-(0)----------|----------|---------------------|----------|
    we________     still_____         have   a    chance______                 
    
    
    BASS ARRANGEMENT (can be played as the sixth guitar)                       
E-|-----------------------------|------------------------------|------------|
G-|-----------------------------|------------------------------|------------|
G-|----------7------------------|-----------5------------------|------------|
C-|----------4-----5----4-------|-------2--------3-----------2-|------------|
G-|-5-----------------------5---|--3---------------------------|------------|
C-|-----------------------------|-------------------------0----|--0---0-----|
    Play this six times....                                                    



Important: The song above is NOT stored on the Chordie server. The original song is hosted at www.xguitar.com. Chordie works as a search engine and provides on-the-fly formatting. Chordie does not index songs against artists'/composers' will. To remove this song please click here.

This song is displayed as text-only. Transposing and tuning is only available for chordpro-songs.

Login - add to songbook

Rating click stars to rate

Layout
Accuracy

SHARE PAGE  




You need to log in to post comments