Chordie logo

Nazi Driver   Soundgarden



Artist - Soundgarden
Song - Nazi Driver
Album - Ultramega O.K
Tabbed by an18nin18

Standard Tuning â€" E, A, D, G, B, E

Intro

|---------------|
|---------------|
|---------------|
|---------------|
|---------------|
|-5--2-5--2â€"5-2-|
  Play x 8

Verse

|-------------------------------------------------------------------------|
|-------------------------------------------------------------------------|
|-------------------------------------------------------------------------|
|-------------------------------------------------------------------------|
|-------------------------------------------------------------------------|
|-5--2-5--2â€"5-5-2-2-5--2-5--2â€"5-5-2-2-5--2-5--2â€"5-5-2-2-5--2-5--2â€"5-5-2-2-|
|Guitar 1 PM THROUGHOUT
|-------------------------------------------------------------------------|
|-------------------------------------------------------------------------|
|-------------------------------------------------------4h5-5~~--3h4-4~~--|
|-------------------------------------------------------------------------|
|-------------------------------------------------------------------------|
|-5--2-5--2â€"5-5-2-2-5--2-5--2â€"5-5-2-2-5--2-5--2â€"5-5-2-2-------------------|
  PM………………………………………………………………………………………………………………………………………
 Guitar 2
 Play x 2

|--------------------------------------------------|
|-4--4-4-4-4--4-4-4-4-4--4-4-4-4-4-5-5-5-5-5-5-5-5-|
|-4--4-4-4-4--4-4-4-4-4--4-4-4-4-4-5-5-5-5-5-5-5-5-|
|-4--4-4-4-4--4-4-4-4-4--4-4-4-4-4-5-5-5-5-5-5-5-5-|
|-2--0-2-0-2--2-0-2-0-2--2-0-2-0-2-3-3-3-3-3-3-3-3-|
|--------------------------------------------------|

|-------------------------------------------------------------------------|
|-------------------------------------------------------------------------|
|-------------------------------------------------------------------------|
|-------------------------------------------------------------------------|
|-------------------------------------------------------------------------|
|-5--2-5--2â€"5-5-2-2-5--2-5--2â€"5-5-2-2-5--2-5--2â€"5-5-2-2-5--2-5--2â€"5-5-2-2-|
|Guitar 1 PM THROUGHOUT
|-------------------------------------------------------------------------|
|-------------------------------------------------------------------------|
|-------------------------------------------------------4h5-5~~--3h4-4~~--|
|-------------------------------------------------------------------------|
|-------------------------------------------------------------------------|
|-5--2-5--2â€"5-5-2-2-5--2-5--2â€"5-5-2-2-5--2-5--2â€"5-5-2-2-------------------|
  PM………………………………………………………………………………………………………………………………………
 Guitar 2
 Play x 2

|--------------------------------------------------|
|-4--4-4-4-4--4-4-4-4-4--4-4-4-4-4-5-5-5-5-5-5-5-5-|
|-4--4-4-4-4--4-4-4-4-4--4-4-4-4-4-5-5-5-5-5-5-5-5-|
|-4--4-4-4-4--4-4-4-4-4--4-4-4-4-4-5-5-5-5-5-5-5-5-|
|-2--0-2-0-2--2-0-2-0-2--2-0-2-0-2-3-3-3-3-3-3-3-3-|
|--------------------------------------------------|

|---------------|
|---------------|
|---------------|
|---------------|
|---------------|
|-5--2-5--2â€"5-2-|
  Play x 4

|-------------------------------------------------------------------------|
|-------------------------------------------------------------------------|
|-------------------------------------------------------------------------|
|-------------------------------------------------------------------------|
|-------------------------------------------------------------------------|
|-5--2-5--2â€"5-5-2-2-5--2-5--2â€"5-5-2-2-5--2-5--2â€"5-5-2-2-5--2-5--2â€"5-5-2-2-|
|Guitar 1 PM THROUGHOUT
|-------------------------------------------------------------------------|
|-------------------------------------------------------------------------|
|-------------------------------------------------------4h5-5~~--3h4-4~~--|
|-------------------------------------------------------------------------|
|-------------------------------------------------------------------------|
|-5--2-5--2â€"5-5-2-2-5--2-5--2â€"5-5-2-2-5--2-5--2â€"5-5-2-2-------------------|
  PM………………………………………………………………………………………………………………………………………
 Guitar 2
 Play x 2

|--------------------------------------------------|
|-4--4-4-4-4--4-4-4-4-4--4-4-4-4-4-5-5-5-5-5-5-5-5-|
|-4--4-4-4-4--4-4-4-4-4--4-4-4-4-4-5-5-5-5-5-5-5-5-|
|-4--4-4-4-4--4-4-4-4-4--4-4-4-4-4-5-5-5-5-5-5-5-5-|
|-2--0-2-0-2--2-0-2-0-2--2-0-2-0-2-3-3-3-3-3-3-3-3-|
|--------------------------------------------------|
|Guitar 1
|--------------------------------------------------|
|-4--4-4-4-4--4-4-4-4-4--4-4-4-4-4-----6~~--7~~----|
|-4--4-4-4-4--4-4-4-4-4--4-4-4-4-4-----------------|
|-4--4-4-4-4--4-4-4-4-4--4-4-4-4-4-----------------|
|-2--0-2-0-2--2-0-2-0-2--2-0-2-0-2-----------------|
|--------------------------------------------------|
 Guitar 2

|---------------|
|---------------|
|---------------|
|---------------|
|---------------|
|-5--2-5--2â€"5-2-|
  Play x 8

Chorus

|-------------------------|
|---------------6h7-7~~-6-|
|------5-7^-7-5-----------|
|-5-/7--------------------|
|-------------------------|
|-------------------------|
  Play x 8

|---------------|
|---------------|
|---------------|
|---------------|
|---------------|
|-5--2-5--2â€"5-2-|
  Play x 8

|-------------------------------------------------------------------------|
|-------------------------------------------------------------------------|
|-------------------------------------------------------------------------|
|-------------------------------------------------------------------------|
|-------------------------------------------------------------------------|
|-5--2-5--2â€"5-5-2-2-5--2-5--2â€"5-5-2-2-5--2-5--2â€"5-5-2-2-5--2-5--2â€"5-5-2-2-|
|Guitar 1 PM THROUGHOUT
|-------------------------------------------------------------------------|
|-------------------------------------------------------------------------|
|-------------------------------------------------------4h5-5~~--3h4-4~~--|
|-------------------------------------------------------------------------|
|-------------------------------------------------------------------------|
|-5--2-5--2â€"5-5-2-2-5--2-5--2â€"5-5-2-2-5--2-5--2â€"5-5-2-2-------------------|
  PM………………………………………………………………………………………………………………………………………
 Guitar 2
 Play x 2

|--------------------------------------------------|
|-4--4-4-4-4--4-4-4-4-4--4-4-4-4-4-5-5-5-5-5-5-5-5-|
|-4--4-4-4-4--4-4-4-4-4--4-4-4-4-4-5-5-5-5-5-5-5-5-|
|-4--4-4-4-4--4-4-4-4-4--4-4-4-4-4-5-5-5-5-5-5-5-5-|

|-2--0-2-0-2--2-0-2-0-2--2-0-2-0-2-3-3-3-3-3-3-3-3-|
|--------------------------------------------------|
|Guitar 1
|--------------------------------------------------|
|-4--4-4-4-4--4-4-4-4-4--4-4-4-4-4-----6~~--7~~----|
|-4--4-4-4-4--4-4-4-4-4--4-4-4-4-4-----------------|
|-4--4-4-4-4--4-4-4-4-4--4-4-4-4-4-----------------|
|-2--0-2-0-2--2-0-2-0-2--2-0-2-0-2-----------------|
|--------------------------------------------------|
 Guitar 2

|-------------------------------------------------------------------------|
|-------------------------------------------------------------------------|
|-------------------------------------------------------------------------|
|-------------------------------------------------------------------------|
|-------------------------------------------------------------------------|
|-5--2-5--2â€"5-5-2-2-5--2-5--2â€"5-5-2-2-5--2-5--2â€"5-5-2-2-5--2-5--2â€"5-5-2-2-|
|Guitar 1 PM THROUGHOUT
|-------------------------------------------------------------------------|
|-------------------------------------------------------------------------|
|-------------------------------------------------------4h5-5~~--3h4-4~~--|
|-------------------------------------------------------------------------|
|-------------------------------------------------------------------------|
|-5--2-5--2â€"5-5-2-2-5--2-5--2â€"5-5-2-2-5--2-5--2â€"5-5-2-2-------------------|
  PM………………………………………………………………………………………………………………………………………
 Guitar 2
 Play x 2

|--------------------------------------------------|
|-4--4-4-4-4--4-4-4-4-4--4-4-4-4-4-5-5-5-5-5-5-5-5-|
|-4--4-4-4-4--4-4-4-4-4--4-4-4-4-4-5-5-5-5-5-5-5-5-|
|-4--4-4-4-4--4-4-4-4-4--4-4-4-4-4-5-5-5-5-5-5-5-5-|
|-2--0-2-0-2--2-0-2-0-2--2-0-2-0-2-3-3-3-3-3-3-3-3-|
|--------------------------------------------------|
|Guitar 1
|--------------------------------------------------|
|-4--4-4-4-4--4-4-4-4-4--4-4-4-4-4-----6~~--7~~----|
|-4--4-4-4-4--4-4-4-4-4--4-4-4-4-4-----------------|
|-4--4-4-4-4--4-4-4-4-4--4-4-4-4-4-----------------|
|-2--0-2-0-2--2-0-2-0-2--2-0-2-0-2-----------------|
|--------------------------------------------------|
 Guitar 2

|---------------|
|---------------|
|---------------|
|---------------|
|---------------|
|-5--2-5--2â€"5-2-|
  Play x 4

|-------------------------|
|---------------6h7-7~~-6-|
|------5-7^-7-5-----------|
|-5-/7--------------------|
|-------------------------|
|-------------------------|
  Play x 8

|-------------------------------------------------------------------------|
|-------------------------------------------------------------------------|
|-------------------------------------------------------------------------|
|-------------------------------------------------------------------------|
|-------------------------------------------------------------------------|
|-5--2-5--2â€"5-5-2-2-5--2-5--2â€"5-5-2-2-5--2-5--2â€"5-5-2-2-5--2-5--2â€"5-5-2-2-|
|Guitar 1 PM THROUGHOUT
|-------------------------------------------------------------------------|
|-------------------------------------------------------------------------|
|-------------------------------------------------------4h5-5~~--3h4-4~~--|
|-------------------------------------------------------------------------|
|-------------------------------------------------------------------------|
|-5--2-5--2â€"5-5-2-2-5--2-5--2â€"5-5-2-2-5--2-5--2â€"5-5-2-2-------------------|
  PM………………………………………………………………………………………………………………………………………
 Guitar 2
 Play x 2

Outro

|---------|
|---------|
|-2~~-----|
|-2~~-4-\\-|
|-0~~-4-\\-|
|-----2-\\-|

And Thats it



Important: The song above is NOT stored on the Chordie server. The original song is hosted at www.xguitar.com. Chordie works as a search engine and provides on-the-fly formatting. Chordie does not index songs against artists/composers will. To remove this song please click here.

This song is displayed as text-only. Transposing and tuning is only available for chordpro-songs.

Login - add to songbook

Rating click stars to rate

Layout
Accuracy

SHARE PAGE  

You need to log in to post comments