Take A Look Around

Soundtracks

17.09.2000 - Ok, this song was pretty much wrong before so I've fixed
it, it should be correct now.
Ok, this song is basically just 3 or 4 riffs. So I'm not gonna write
any chords here, I'm just gonna tab out the riffs and tell you where
each riff goes. The tuning is normal tuning tuned down 3 notes, TUNE
ALL YOUR STRINGS DOWN 3 NOTES IF YOU WANT TO PLAY WITH THE CD!!
RIFF 1:
   -------

p = pull-off
   E|---------------------------------------------------|
   B|---------------------------------------------------|
   G|-------------------2--4p2--------------------------|
   D|--4---4---4---4-4-----------4---4---4---4-4--2--3--|
   A|---------------------------------------------------|
   E|---------------------------------------------------|

RIFF 2:
   -------

p = pull-off
   E|--17p14---------17p14---------17p14----------17p14-------------------|
   B|--------14------------13------------12-------------15-15-15-15-14-14-|
   G|---------------------------------------------------------------------|
   D|---------------------------------------------------------------------|
   A|---------------------------------------------------------------------|
   E|---------------------------------------------------------------------|

RIFF 3:
   -------
   E|-----------------------------------------------------------------|
   B|-----------------------------------------------------------------|
   G|-----------------------------------------------------------------|
   D|-----------------------------------------------------------------|
   A|---------------------------0-2-----------------------------------|
   E|---0-2---0-2---0-2---0-2----------0-2---0-2---0-2---0-2----0--1--|

RIFF 4:
   -------
   E|-----------------------------------------------------------------|
   B|-----------------------------------------------------------------|
   G|-----------------------------------------------------------------|
   D|---------------------------0--4----------------------------------|
   A|-----4-----4-----4-----4---0--2-----4-----4-----4-----4-------3--|
   E|---0-2---0-2---0-2---0-2----------0-2---0-2---0-2---0-2----0--1--|

RIFF 5:
   -------
   E|-----------------------------------------------------------------|
   B|-----------------------------------------------------------------|
   G|-----------------------------------------------------------------|
   D|---------------------------0--4----------------------------------|
   A|-----4-----4-----4-----4---0--2-----4-----4-----4-----4-------3--|
   E|---0-2---0-2---0-2---0-2----------0-2---0-2---0-2---0-2----0--1--|

p p p p p p p p
Riff 5 is the same as Riff 4 except the notes with p below them
are palm muted.
INTRO:
   ------

 Play RIFF 1 eigbt times
VERSE:
   ------

 Play RIFF 2
All the teachin' in the world today,
All the little girls fillin' up the world today.
With the good comes the bad, the bad comes the good,
But I'ma live my life like I should (like I should).
Now all the critics wanna hit it, ya shit-can how we did it,
Just because they don't get it,
But I'll stay fitted, new era committed.
Now this red cap gets a rap from these critics.
 Play RIFF 1
Do we always gotta cry (always gotta cry)?
Do we always gotta (always gotta) live inside a lie?
Life's just a blast that's movin' really fast,
You better stay on top or life will kick you in the ass.
 Play RIFF 2
Follow me into a solo.
Remember that kid, so what you wanna do?
And where you gonna run
When you starin' down the cable of a mic
Pointed at your grill like a gun?
Limp Bizkit is rockin' the set, it's like Russian Roulette
When you're placin' your bet.
So don't be upset when you're broke and you're done,
'Cause I'ma be the one till I jet.
(I'ma be the one till I jet.)
CHORUS:
   -------

 Play RIFF 3
I know why you wanna hate me...
I know why you wanna hate me...
I know why you wanna hate me...
'Cause hate is all the world has even seen lately.
I know why you wanna hate me...
I know why you wanna hate me...
Now I know why you wanna hate me!
'Cause hate is all the world has even seen lately!
 Play RIFF 4
I know you wanna hate me!
'Cause hate is all the world has even seen lately!
 Play RIFF 5
I know you wanna hate me!
'Cause hate is all the world has even seen lately!
 Play RIFF 1 twice
VERSE:
   ------

 Play RIFF 2
Does anybody really know the secret
Or the combination for this life and where they keep it?
It's kinda sad when you don't know the meanin'
But everything happens for a reason (everything happens for a reason).
I don't even know what I should say,
'Cause I'm an idiot, a loser, microphone abuser.
I analyze every second I exist,
Beating up my mind every second with my fists.
And everybody wanna run (wanna run).
Everybody wanna hide from the gun (hide from the gun).
You can take that ride through this life if you want
But you can't take the edge off the knife. No sir!
And now you want your money back (money back),
But you're denied 'cause your brains fried from the sack.
And there ain't nothin' I can do, '
Cause life is a lesson, you learn it when you're through.
CHORUS:
   -------

 Play RIFF 3
I know why you wanna hate me...
I know why you wanna hate me...
I know why you wanna hate me...
'Cause hate is all the world has even seen lately.
I know why you wanna hate me...
I know why you wanna hate me...
Now I know why you wanna hate me!
'Cause hate is all the world has even seen lately!
 Play RIFF 4
I know you wanna hate me
cause hate is all the world has even seen lately!
 Play RIFF 5
I know you wanna hate me
cause hate is all the world has even seen lately!
 play tbis tab once
   E|-----------------------------------------------------|
   B|-----------------------------------------------------|
   G|-----------------------------------------------------|
   D|----------0-4----------------------0-4---------------|
   A|--4---4---0-2--4---4-----3-4---4---0-2--4---4-----3--|
   E|--2---2--------2---2---0-1-2---2--------2---2---0-1--|

 no guitar for tbe first 2 lines
       BRIDGE:  
   -------

Now I know why...
Now I know why... (I know why you wanna hate me)
 Now play tbis:
   E|--------------------------------------------------------------
   B|--------------------------------------------------------------
   G|----------2--4p2------------------------2--4p2----------------
   D|--4---4------------4---4---2-3--4---4------------4----4---2-3-
   A|--------------------------------------------------------------
   E|--------------------------------------------------------------
   E-------------------------------------------------------|
   B-------------------------------------------------------|
   G----------2--4p2------------------------2--4p2---------|
   D--4---4------------4---4---2-3--4---4------------4-----|
   A-------------------------------------------------------|
   E-------------------------------------------------------|

Now I know why...
Now I know why...
CHORUS:
   -------

 play RIFF 4
Now I know why you wanna hate me!
Now I know why you wanna hate me!
Now I know why you wanna hate me!
'Cause hate is all the world has even seen lately!
 play RIFF 5
'Cause hate is all the world has even seen lately!
'Cause hate is all the world has even seen lately!
OUTRO:
   ------

 Play RIFF 2 lots of times and fade out...
**********************************************************************
Questions, comments, corrections, requests, send to:
qualitytabs@hotmail.com
**********************************************************************
Visit the QUALITY TABS INC. Website at:
www.geocities.com/SunsetStrip/Garage/4564/qualtabs.htm
**********************************************************************


variations - click chord images
Transpose chords:
Tuning:
Cool service:
View: Size:
A  A  A
Rating:
Layout:
  • Currently 0/5 Stars.
  • 1
  • 2
  • 3
  • 4
  • 5
 
Accuracy:
  • Currently 3/5 Stars.
  • 1
  • 2
  • 3
  • 4
  • 5
 
click stars to rate
Chordie recommends:
Learn to play songs at Jamplay.com with video guitar lessons
Songbook:
Login to add this song to your songbook
Support the artist
Preview/buy this song
MSN Music
Why this non-profit ad?

 
login to add comments/video/corrections