Guitar Tabs, Chords and Lyrics


La Cerca    Sparta



Artist - Sparta
Song - La Cerca
Album - Porcelain (2004)
Tuning - Standard (EADGBE)
Tabbed by - forgive_my_indecision@hotmail.com

* = natural harmonic
/ = slide
x = muted string (percussive effect)


Intro
E--------------------------------------
B--99999999----------------------------
G--99999999--11-11-11-11-11-11-11-11---
D--77777777---9--9--9--9--9--9--9--9---
A--99999999---7--7--7--7--7--7--7--7---
E--------------------------------------

Verse 1
E-----------------------------12*-----------
B--xx-10--------xx-10-----------------------
G--xx-9--7h9----xx-9--7h9--7*-----7*--------
D--xx-7------7--xx-7-----------------7*-----
A-------------------------------------------
E-------------------------------------------


E---------------------------------------------------------
B---------------------------------------------------------
G-11-11-11-11-11-11-11-11--99999999--77777777--666--4444--
D--x--x--x--x--x--x--x--x--xxxxxxxx--xxxxxxxx--xxx--xxxx--
A--9--9--9--9--9--9--9--9--77777777--55555555--444--2222--
E---------------------------------------------------------
1


E-----------------------------12*------------
B--xx-10--------xx-10------------------------
G--xx-9--7h9----xx-9--7h9--7*-----7*---------
D--xx-7------7--xx-7-----------------7*------
A--------------------------------------------
E--------------------------------------------


E---------------------------------------------------------
B---------------------------------------------------------
G-11-11-11-11-11-11-11-11--99999999--77777777--666--4444--
D--x--x--x--x--x--x--x--x--xxxxxxxx--xxxxxxxx--xxx--xxxx--
A--9--9--9--9--9--9--9--9--77777777--55555555--444--2222--
E---------------------------------------------------------


E-----------------------------12*------------
B--xx-10--------xx-10------------------------
G--xx-9--7h9----xx-9--7h9--7*-----7*---------
D--xx-7------7--xx-7-----------------7*------
A--------------------------------------------
E--------------------------------------------


E-----------------------------------------------------------------
B-----------------------------------------------------------------
G-11-11-11-11-11-11-11-11--99999999--77777777--666--4444----------
D--x--x--x--x--x--x--x--x--xxxxxxxx--xxxxxxxx--xxx--xxxx--444444--
A--9--9--9--9--9--9--9--9--77777777--55555555--444--2222--444444--
E---------------------------------------------------------222222--

Chorus 1
E------------------------------
B------------------------------
G--44444--22222----------------
D--xxxxx--22222--55555--44444--
A--22222--00000--55555--44444--
E----------------33333--22222--


E------------------------
B------------------------
G--44444--22222----------
D--xxxxx--22222--55555---
A--22222--00000--55555---
E----------------33333---

Pre Verse
E--------------------------------------
B--99999999----------------------------
G--99999999--11-11-11-11-11-11-11-11---
D--77777777---9--9--9--9--9--9--9--9---
A--99999999---7--7--7--7--7--7--7--7---
E--------------------------------------

Verse 2
E-----------------------------12*------------
B--xx-10--------xx-10------------------------
G--xx-9--7h9----xx-9--7h9--7*-----7*---------
D--xx-7------7--xx-7-----------------7*------
A--------------------------------------------
E--------------------------------------------


E---------------------------------------------------------
B---------------------------------------------------------
G-11-11-11-11-11-11-11-11--99999999--77777777--666--4444--
D--x--x--x--x--x--x--x--x--xxxxxxxx--xxxxxxxx--xxx--xxxx--
A--9--9--9--9--9--9--9--9--77777777--55555555--444--2222--
E---------------------------------------------------------


E-----------------------------12*------------
B--xx-10--------xx-10------------------------
G--xx-9--7h9----xx-9--7h9--7*-----7*---------
D--xx-7------7--xx-7-----------------7*------
A--------------------------------------------
E--------------------------------------------


E---------------------------------------------------------
B---------------------------------------------------------
G-11-11-11-11-11-11-11-11--99999999--77777777--666--4444--
D--x--x--x--x--x--x--x--x--xxxxxxxx--xxxxxxxx--xxx--xxxx--
A--9--9--9--9--9--9--9--9--77777777--55555555--444--2222--
E---------------------------------------------------------


E-----------------------------12*------------
B--xx-10--------xx-10------------------------
G--xx-9--7h9----xx-9--7h9--7*-----7*---------
D--xx-7------7--xx-7-----------------7*------
A--------------------------------------------
E--------------------------------------------


E-----------------------------------------------------------------
B-----------------------------------------------------------------
G-11-11-11-11-11-11-11-11--99999999--77777777--666--4444----------
D--x--x--x--x--x--x--x--x--xxxxxxxx--xxxxxxxx--xxx--xxxx--444444--
A--9--9--9--9--9--9--9--9--77777777--55555555--444--2222--444444--
E---------------------------------------------------------222222--

Chorus 2
E-------------------------------
B-------------------------------
G--44444--22222-----------------
D--xxxxx--22222--55555--44444---
A--22222--00000--55555--44444---
E----------------33333--22222---


E-------------------------------
B-------------------------------
G--44444--22222-----------------
D--xxxxx--22222--55555--44444---
A--22222--00000--55555--44444---
E----------------33333--22222---


E-------------------------------
B-------------------------------
G--44444--22222-----------------
D--xxxxx--22222--55555--44444---
A--22222--00000--55555--44444---
E----------------33333--22222---


E------------------------
B------------------------
G--44444--22222----------
D--xxxxx--22222--55555---
A--22222--00000--55555---
E----------------33333---

Pre Verse
E--------------------------------------
B--99999999----------------------------
G--99999999--11-11-11-11-11-11-11-11---
D--77777777---9--9--9--9--9--9--9--9---
A--99999999---7--7--7--7--7--7--7--7---
E--------------------------------------

Verse 3
E-----------------------------12*---------
B--xx-10--------xx-10---------------------
G--xx-9--7h9----xx-9--7h9--7*-----7*------
D--xx-7------7--xx-7-----------------7*---
A-----------------------------------------
E-----------------------------------------


E---------------------------------------------------------
B---------------------------------------------------------
G-11-11-11-11-11-11-11-11--99999999--77777777--666--4444--
D--x--x--x--x--x--x--x--x--xxxxxxxx--xxxxxxxx--xxx--xxxx--
A--9--9--9--9--9--9--9--9--77777777--55555555--444--2222--
E---------------------------------------------------------

Pre Bridge
E----------------17-15--14---
B--15-14--10/12--------------
G----------------------------
D----------------------------
A----------------------------
E----------------------------

Bridge
E-----------------
B-----------------
G--4--0--------4--
D--x--2--4--5--x--  x4
A--2--2--4--5--2--
E-----0--2--3-----


E-----------------
B-----------------
G----------4------
D--444444--x------
A--444444--2------
E--222222---------


E--------10----10----------9----9----------7---7---------
B--12-12----12----12-10-10---10---10--8--8---8---8-------
G--------------------------------------------------------
D--------------------------------------------------------
A--------------------------------------------------------
E--------------------------------------------------------

Chorus 3
E----------------------------------------------------------
B----------------------------------------------------------
G--44444--22222----------------44444--22222----------------
D--xxxxx--22222--55555--44444--xxxxx--22222--55555--44444--
A--22222--00000--55555--44444--22222--00000--55555--44444--
E----------------33333--22222----------------33333--22222--

Chorus 4
E----------------------------------------------------------
B-------3h5-------------------------------------3h5--------
G--444------2--44444--22222----------------444------2------
D--xxx---------xxxxx--22222--55555--44444--xxx-------------
A--222---------22222--00000--55555--44444--222-------------
E----------------------------33333--22222------------------

Outro
E---------------------
B--------------88888--
G--44444-22222-xxxxx--
D--xxxxx-22222-55555--  x3
A--22222-00000--------
E---------------------

Ending chord
E---------
B---------
G---------
D--4------
A--4------
E--2------



Important: The song above is NOT stored on the Chordie server. The original song is hosted at www.xguitar.com. Chordie works as a search engine and provides on-the-fly formatting. Chordie does not index songs against artists'/composers' will. To remove this song please click here.

This song is displayed as text-only. Transposing and tuning is only available for chordpro-songs.

Login - add to songbook

Rating click stars to rate

Layout
Accuracy

SHARE PAGE  




You need to log in to post comments