Chordie logo


A.I.R.    Sparta



PART I
E|--------------------------------------------------------|
B|--------------------------------------------------------|
G|--------------------------------------------------------|
D|---0---0---0---0---0---0---0---0------------------------|
A|--0-0-0-0-0-0-0-0-0-0-0-0-0-0-0-0-----------------------|
D|-7---7---9---9---5---5---3---3--------------------------|

This is the intro and main verse; played four times.

PART II
E|--------------------------------------------------------|
B|--------------------------------------------------------|
G|--------------------------------------------------------|
D|-11---9---14---12---------------------------------------|
A|-------------------12--14-------------------------------|
D|--------------------------------------------------------|

This is played between Jim's singing parts in the verse; played four times.

PART III
E|--------------------------------------------------------|
B|--------------------------------------------------------|
G|-x-x-14----x-x-14----x-x-14----x-x-14-------------------|
D|-x-x-x-----x-x-x-----x-x-x-----x-x-x--------------------|
A|-x-x-12----x-x-12----x-x-12----x-x-12-------------------|
D|--------------------------------------------------------|

This is the third part of the main verse, played as Jim starts singing again; played three times.

E|--------------------------------------------------------|
B|--------------------------------------------------------|
G|-x-x-14----x-x-14---------------------------------------|
D|-x-x-x-----x-x-x--x-x-x-x--0----------------------------|
A|-x-x-12----x-x-12-x-x-x-x--0----------------------------|
D|------------------x-x-x-x--0----------------------------|

This is the fourth set of measures before the chorus, as you do those final scratches, make
sure that you move your fingers down to the lower frets, so you don't get the harmonics from
the 12th fret.

CHORUS
E|--------------------------------------------------------|
B|--------------------------------------------------------|
G|--------------------------------------------------------|
D|-4-5-4-0--0-4-5-4-0--0-4-5-4-7--7--7-7-7-7-7--x-x-------|
A|-4-5-4-0--0-4-5-4-0--0-4-5-4-7--7--7-7-7-7-7--x-x-------|
D|-4-5-4-0--0-4-5-4-0--0-4-5-4-7--7--7-7-7-7-7--x-x-------|

E|--------------------------------------------------------|
B|--------------------------------------------------------|
G|--------------------------------------------------------|
D|-4-5-4-0--0-4-5-4-0--0-4-5-4-7--7--7-7-7-4-5-4-5-4------|
A|-4-5-4-0--0-4-5-4-0--0-4-5-4-7--7--7-7-7-4-5-4-5-4------|
D|-4-5-4-0--0-4-5-4-0--0-4-5-4-7--7--7-7-7-4-5-4-5-4------|

This is the main chorus, you can do your own number of strums on the A5's, this is just how I play it.

BRIDGE
E|-3---3-3-0-0-0-0-0-0-0-2-2-2----------------------------|
B|-3---3-3-2-2-2-2-2-2-2-2-2-2-0---0-0--------------------|
G|-4---4-4-2-2-2-2-2-2-2-2-2-2-2---2-2-2-2-2-2-2---2------|
D|-5---5-5-0-0-0-0-0-0-0-0-0-0-2---2-2-2-2-2-2-2---2------|
A|-----------------------------4---4-4-0-0-0-0-0---0------|
D|--------------------------------------------------------|

Play this part three times

PART IV
E|--------------------------------------------------------|
B|--------------------------------------------------------|
G|--------------------------------------------------------|
D|-x-x-x-x-x-x-x-x-x-x-x-x--------------------------------|
A|-x-x-x-x-x-x-x-x-x-x-x-x--------------------------------|
D|-x-x-x-x-x-x-x-x-x-x-x-x--------------------------------|



Important: The song above is NOT stored on the Chordie server. The original song is hosted at www.xguitar.com. Chordie works as a search engine and provides on-the-fly formatting. Chordie does not index songs against artists/composers will. To remove this song please click here.

This song is displayed as text-only. Transposing and tuning is only available for chordpro-songs.

Login - add to songbook

Rating click stars to rate

Layout
Accuracy

SHARE PAGE  




You need to log in to post comments