Guitar Tabs, Chords and Lyrics


Beginning of the End   Spineshank



Artist: Spineshank
Song: Beginning Of The End
Album: Self-Destructive Pattern(2003)
Tabbed By: Zach
e-mail : disturbed146968@yahoo.com
Tuning: A#, F, A#, D#, G, C


INTRO/CHORUS:

Riff A:
C |---------------------------------------------------------------|
G |--3-3-3-3-3-3-3-3---5-5-5--6-6-6-6-6--10-10-10-10-10-10-10-10--|
D#|--2-2-2-2-2-2-2-2----------------------------------------------|
A#|--0-0-0-0-0-0-0-0----------------------------------------------|
F |--0-0-0-0-0-0-0-0---3-3-3--5-5-5-5-5---8--8--8--8--8--8--8--8--|
A#|--0-0-0-0-0-0-0-0----------------------------------------------|

Riff A Continued:
C |---------------------|
G |--5-5-5---6-6-6-6-6--|
D#|---------------------|
A#|---------------------| X2 ------> Repeat Entire Riff Twice.
F |--3-3-3---5-5-5-5-5--|
A#|---------------------|

VERSE (Let Ring):

C |--------------------------|
G |--------------------------|
D#|--7------7------5---------|
A#|---------5------3------0--| X1
F |--5------5------3------0--|
A#|--0------5------3------0--|

PRE CHORUS:

Riff B:
C |-------------------------------------------------------------------|
G |-------------------------------------------------------------------|
D#|-------------------------------------------------------------------|
A#|-------------------3-----------------------3--------------------8--|
F |--1-0--0-0--1-0--0-0---1-0--0-0--1-0--0-0--3---5-5--5-5--5-5--5-5--|
A#|--1-0--0-0--1-0--0-0---1-0--0-0--1-0--0-0--3---5-5--5-5--5-5--5-5--|

Riff B Continued:
C |----------------------------------------------------------------------|
G |----------------------------------------------------------------------|
D#|----------------------------------------------------------------------|
A#|----------------------5--------------------3-----------------------5--|
F |--5-5--5-5--5-5--5-5--5---3-3--3-3--3-3--3-3---3-3--3-3--3-3--3-3--5--|
A#|--5-5--5-5--5-5--5-5--5---3-3--3-3--3-3--3-3---3-3--3-3--3-3--3-3--5--|

Riff B Continued:
C |-----------------------------------------------|
G |-----------------------------------------------|
D#|-----------------------------------------------|
A#|--------------------3-----------------------3--| X1
F |--1-0--0-0---1-0--0-0---1-0--0-0--1-0--0-0--3--|
A#|--1-0--0-0---1-0--0-0---1-0--0-0--1-0--0-0--3--|

REPEAT INTRO/CHORUS

TRANSITION:

C |---------------------|
G |---------------------|
D#|---------------------|
A#|---------------------| X4
F |--1--0--0-0--1-0--0--|
A#|--1--0--0-0--1-0--0--|

REPEAT VERSE

REPEAT PRE-CHORUS

REPEAT INTRO/CHORUS

BRIDGE:

Riff C:
C |-----------------------------------------------------|
G |-----------------------------------------------------|
D#|-----------------------------------------------------|
A#|-----------------------------------------------------|
F |-------5-5-------5-5----0------3-3--5-5--3-3--5-5----|
A#|--0-0-------0-0-------0-0------3-3-------3-3---------|

Riff C Continued:
C |--------------------------------------------------------|
G |--------------------------------------------------------|
D#|--------------------------------------------------------|
A#|--------------------------------------------------7--7--| X2
F |--5-5--5-5--5-5--5-5--5--5--8-8--8-8--8-8--8-8----7--7--|
A#|--5-5--5-5--5-5--5-5--5--5--8-8--8-8--8-8--8-8----7--7--|

REPEAT BRIDGE (Clean With Reverb, Then Gradually Become Distorted)

REPEAT TRANSITION:

FILL:

C |-------------------|
G |--3-3-3-3-3-3-3-3--|
D#|--2-2-2-2-2-2-2-2--|
A#|--0-0-0-0-0-0-0-0--| X1 ----> This is played in a different distortion.
F |--0-0-0-0-0-0-0-0--|
A#|--0-0-0-0-0-0-0-0--|

REPEAT CHORUS X2

OUTRO:
The outro is the same riff as the INTRO/CHORUS except it is played Clean and


Important: The song above is NOT stored on the Chordie server. The original song is hosted at www.xguitar.com. Chordie works as a search engine and provides on-the-fly formatting. Chordie does not index songs against artists/composers will. To remove this song please click here.

This song is displayed as text-only. Transposing and tuning is only available for chordpro-songs.

Login - add to songbook

Rating click stars to rate

Layout
Accuracy

SHARE PAGE  




You need to log in to post comments