Chordie logo

Cyanide 2600   Spineshank



|-------------------------------------------|
|-----Created By The Hard Rock Universe-----|
|----http://music.acmecity.com/metal/399----|
|-------------------------------------------|
Artist:		Spineshank
Song:		Cyanide 2600
Album:		The Height Of Callousness
Author:		hardrockuniverse@kornfreak.com
URL:		http://www.hardrock.musicpage.com

Tuning: Drop D, Down 3 Steps
(A#, F, A#, D#, G, C)

Intro
C |----------------------|
G |----------------------|
D#|-7----7-----7-----12--|
A#|----------------------|
F |-5----5-----5-----10--|
A#|----------------------|

Verse
C |----------|
G |----------|
D#|--8-----2-|
A#|--6-----0-|
F |--6-----0-|
A#|--6-----0-|
Interlude
C |---------------|
G |---------------|
D#|---------------|
A#|---------------|
F |-2-1--1-1---1--|


Important: The song above is NOT stored on the Chordie server. The original song is hosted at www.xguitar.com. Chordie works as a search engine and provides on-the-fly formatting. Chordie does not index songs against artists/composers will. To remove this song please click here.

This song is displayed as text-only. Transposing and tuning is only available for chordpro-songs.

Login - add to songbook

Rating click stars to rate

Layout
Accuracy

SHARE PAGE  



You need to log in to post comments