Guitar Tabs, Chords and Lyrics


Fill Me Up   Staind



Band: Staind
Song: Fill Me Up
Tuning: Drop D, 1/2 Step Down (Db,Ab,Db,Gb,Bb,Eb)

Intro
|--------------------------------------|
|--------------------------------------|
|-----------------------------------777|
|--0h2-2222-xx-2p0-00--0h2-222-xx-0-xxx|
|--0h2-2222-xx-2p0-00--0h2-222-xx-0-555|
|--0h2-2222-xx-2p0-00--0h2-222-xx-0-000|
repeat as necessary

Verse
|-------------------------------|
|-------------------------------|
|--9--play--------7-that about--|
|--x--around 16---x-4 or 5 times|
|--7--times then--5-------------|
|--0--play--------0-------------|

Chorus: Guitar 1
|----------------------------------|
|----------------------------------|
|----------5-5-5-5-----------------|
|--7-7-7-7-5-5-5-5-5-5-5-5-3-3-3-3-|
|--7-7-7-7-3-3-3-3-5-5-5-5-3-3-3-3-|
|--7-7-7-7---------5-5-5-5-3-3-3-3-|
repeat twice

Chorus: Guitar 2
|------------|
|------------|
|--12-11-9-7-|
|--x--x--x-x-|
|--10-9--7-5-|
|------------|
repeat twice

Verse 2: Guitar 1
|-------------------------------|
|-------------------------------|
|--9--play--------7-that about--|
|--x--around 16---x-4 or 5 times|
|--7--times then--5-------------|
|--0--play--------0-------------|

Verse 2: Guitar 2
|-----------7-|
|--------7--7-|
|--9--9-----9-|
|---9--9----9-|
|-------------|
|-------------|
repeat when necessary

Chorus (Same)
Post Chorus (Same)
Verse 3 (Same as Verse 2)
Chorus
Post Chorus

Outro:
|-----------------------------------------------------|
|-----------------------------------------------------|
|-----------------------------------777---------------|
|--0h2-2222-xx-2p0-00--0h2-222-xx-0-xxx-0h2-2222-2p0--|
|--0h2-2222-xx-2p0-00--0h2-222-xx-0-555-0h2-2222-2p0--|
|--0h2-2222-xx-2p0-00--0h2-222-xx-0-000-0h2-2222-2p0--|

Overall:
Intro x4
Verse 1 x9
Chorus x2
Post Chorus x2
Verse 2 x9
Chorus x2
Post Chorus x2
Verse 3 x9
Chorus x4
Outro x1



Important: The song above is NOT stored on the Chordie server. The original song is hosted at www.xguitar.com. Chordie works as a search engine and provides on-the-fly formatting. Chordie does not index songs against artists'/composers' will. To remove this song please click here.

This song is displayed as text-only. Transposing and tuning is only available for chordpro-songs.

Login - add to songbook

Rating click stars to rate

Layout
Accuracy

SHARE PAGE  




You need to log in to post comments