Guitar Tabs, Chords and Lyrics


How About You   Staind



Dropped D-Tuning

Intro
|------------0---------0----|
|----------1-------------1--|
|----2-------------2--------|
|--2---2---------2---2------|
|---------------------------|
|---------------------------|

Chorus
|------------------------------------------|
|------------------------------------------|
|------------------------------------------|
|--5-5-5-5--3-3-3-3--9-9-9-9--11-11-11-11--|
|--5-5-5-5--3-3-3-3--9-9-9-9---9--9--9--9--|
|--5-5-5-5--3-3-3-3--9-9-9-9---9--9--9--9--|

I know the intro is a bit off, but it should be alright...it's the first


Important: The song above is NOT stored on the Chordie server. The original song is hosted at www.xguitar.com. Chordie works as a search engine and provides on-the-fly formatting. Chordie does not index songs against artists'/composers' will. To remove this song please click here.

This song is displayed as text-only. Transposing and tuning is only available for chordpro-songs.

Login - add to songbook

Rating click stars to rate

Layout
Accuracy

SHARE PAGE  




You need to log in to post comments