Guitar Tabs, Chords and Lyrics


Intro   Staind



BAnd: Staind
Tabber: Thomas Riekenberg
Tuning: (don't know witch tuning but this is for standart, for those that won't tune down their guitars)

Intro+Verse  (delay and chorus)
----------------------------------------------------------------------------------------------------
-------------------------------------------------10---10---12p10---10---10---10-9-10---12p10--------
----8p6---8p6-11-10-8-6---8p6----8p6-11-10-8-6-9----9----9-------9----9----9---------9-------9------
--6---------------------6---------------------------------------------------------------------------
----------------------------------------------------------------------------------------------------
----------------------------------------------------------------------------------------------------


Chorus
--------------------------------------
--------------------------------------
--------------------------------------
--6-6-6-6-6-6-6-6--0-0-0-0-0-0-0-0----
--4-4-4-4-4-4-4-4--0-0-0-0-0-0-0-0----
--4-4-4-4-4-4-4-4--0-0-0-0-0-0-0-0----

Struture:

Intro: x1
Verse: X2
CHorus: x2
Intro: x1
Verse: x2
Chorus: x2
Outro: (Intro) :x2



Important: The song above is NOT stored on the Chordie server. The original song is hosted at www.xguitar.com. Chordie works as a search engine and provides on-the-fly formatting. Chordie does not index songs against artists'/composers' will. To remove this song please click here.

This song is displayed as text-only. Transposing and tuning is only available for chordpro-songs.

Login - add to songbook

Rating click stars to rate

Layout
Accuracy

Jango Player

SHARE PAGE  




You need to log in to post comments