Chordie logo

Reality   Staind



Song:   Reality
Band:   Staind
Album:  14 Shades Of Grey
Tabber: Adam Urbanczyk
E-Mail: ibanezgtr1492@yahoo.com
Tuning: Ab,Db,Ab,Db,Gb,Bb

Gtr. I     Mike Mushok Slighty Dirty Electric
Gtr. II    Mike Mushok Distorted (w/ phase shifting effect and e-Bow)
Gtr. III   Mike Mushok Distorted (Rhythm)
Gtr. IV    Mike Mushok Distorted (Lead)

   Intro:
   Gtr. I
Bb|------------------------------------------------------------------------------------------|
Gb|----------------------------------------------------------------------------(crescendo)---|
Db|-----4-----5---4--4/5-5----------4------4--4h5p4--------5---4--------0--------------------|
Ab|--2-(2)-2-(2)-----2---2--------0---0----5--5--(5)--5----5--(5)--5----0------0-0-0-0-0-0---|
Db|--2-(2)-2-(2)-----2---2------0----------5--5--(5)--5----5--(5)-(5)---0------0-0-0-0-0-0---|
Ab|------------------------------------------------------------------------------------------|
    PM    PM                   PM...  PM......                                 PM..........


   Verses:
   Gtr. I
Bb|------------------------------------------------------------------------------------------|
Gb|------------------------------------------------------------------------------------------|
Db|-----4-----5---4--4/5-5----------4------4--4h5p4--------5---4--------0-----(0)-----(0_----|
Ab|--2-(2)-2-(2)-----2---2--------0---0----5--5--(5)--5----5--(5)--5----0-----(0)-----(0)----|
Db|--2-(2)-2-(2)-----2---2------0----------5--5--(5)--5----5--(5)-(5)---0-----(0)-----(0)----|
Ab|------------------------------------------------------------------------------------------|
  | PM    PM                   PM...  PM......                          PM.................  |
  |											     |
  |Gtr. II										     |
Bb|--8------------------------------------15---------------------------10--------------------|
Gb|--x-(let ring)--------------------------x-(let ring)-----------------x-(let ring)---------|
Db|--5------------------------------------12----------------------------7--------------------|
Ab|------------------------------------------------------------------------------------------|
Db|------------------------------------------------------------------------------------------|
Ab|------------------------------------------------------------------------------------------|


   Chorus:
   Gtr. III
Bb|------------------------------------------------------------------------------------------|
Gb|--5---------------------------------------------------------------------------------------|
Db|--5--------------------5------------------------------------------------------------------|
Ab|--3--------------------5-------------------(3)------------------(2)-----------------------|
Db|-----------------------5--------------------5--------------------4------------------------|
Ab|--------------------------------------------3--------------------2------------------------|
  |											     |
  |Gtr. IV										     |
Bb|--------x----7--8-----------x----3--5-------8----7----5----3-----7--------8---------7-----|
Gb|--------x----x--x-----------x----x--x-------x----x----x----x-----x--------x---------x-----|
Db|--------x----4--5-----------x----0--2-------5----4----2----0-----4--------5---------4-----|
Ab|------------------------------------------------------------------------------------------|
Db|------------------------------------------------------------------------------------------|
Ab|------------------------------------------------------------------------------------------|


   Bridge:
   Gtr. III
Bb|------------------------------------------------------------------------------------------|
Gb|-----------------------5------------------------------------------------------------------|
Db|--2--------------------5--------------------7--------------------9------------------------|
Ab|--2--------------------3--------------------7--------------------9------------------------|
Db|--2-----------------------------------------7--------------------9------------------------|
Ab|------------------------------------------------------------------------------------------|
  |											     |
  |Gtr. IV										     |
Bb|-------8----5-----------------3----5------------------------------------------------------|

Gb|-------x----x-----------------x----x---------------5----4-----------------4----5----------|
Db|-------5----2-----------------0----2---------------x----x-----------------x----x----------|
Ab|---------------------------------------------------3----2-----------------2----3----------|
Db|------------------------------------------------------------------------------------------|


Important: The song above is NOT stored on the Chordie server. The original song is hosted at www.xguitar.com. Chordie works as a search engine and provides on-the-fly formatting. Chordie does not index songs against artists/composers will. To remove this song please click here.

This song is displayed as text-only. Transposing and tuning is only available for chordpro-songs.

Login - add to songbook

Rating click stars to rate

Layout
Accuracy

SHARE PAGE  

You need to log in to post comments