Guitar Tabs, Chords and Lyrics


So Far Away   Staind










Author/Artist: Staind
Title: So Far Away
Album: 14 Shades of Grey
Transcribed by: Jordon Popp
Email: Hobbie813@aol.com

AbDbAbDbGbBb

There IS an acoustic guitar, BUT I can't figure it out, Like normal

Also like normal, i KNOW tis is at least 90% correct, because I saw Mike play this song and I was front row.
I don't know why people can't realize that Mike DOES NOT play a 7 string, OR just use drop Db tunings, its been known for

some years now he uses Baritones....


Intro\\Verse

-12------------12-13-----------13-15----------15--10--------------------------
-----12-----12--------12----12-------12----12---------11----------------------
---------14--------------14-------------14----------------12------------------
------------------------------------------------------------------------------
------------------------------------------------------------------------------
------------------------------------------------------------------------------


-12------------12-13----------13-15-------------------------------------------
-----12-----12-------12----12-------12----12-----9^---5^----------------------
---------14-------------14-------------14-----------------7^------------------
------------------------------------------------------------------------------
------------------------------------------------------------------------------
------------------------------------------------------------------------------



Pre-Chorus

--12----------12-12----------12----------12-10--------------------------------
-----12----12-------12----12----12----12-------11-----------------------------
--------14-------------14----------14-------------12--------------------------
------------------------------------------------------------------------------
------------------------------------------------------------------------------
------------------------------------------------------------------------------



Corus

------------------------------------------------------------------------------
------------------------------------------------------------------------------
------------------------------------------------------------------------------
------------------------------------------------------------------------------
--12---12-12-12--12---12-12-12/7---7-7-7--7---7-7-7---------------------------
--10---10-10-10--10---10-10-10/5---5-5-5--5---5-5-5---------------------------


------------------------------------------------------------------------------
------------------------------------------------------------------------------
------------------------------------------------------------------------------
------------------------------------------------------------------------------
--9---9-9-9--9---9-9-9/5---5-5-5--5---5-5-5-----------------------------------
--7---7-7-7--7---7-7-7/3---3-3-3--3---3-3-3-----------------------------------





This IS the corect Bridge, this is what Mike plays live

------------------------------------------------------------------------------
------------------------------------------------------------------------------
------------------------------------------------------------------------------
------------------------------------------------------------------------------
-5-5-5-5-5-5\\7-7-7-7-7-7\\9-9-9-9-9-9\\12-12-12-12-12-12------------------------


Important: The song above is NOT stored on the Chordie server. The original song is hosted at www.xguitar.com. Chordie works as a search engine and provides on-the-fly formatting. Chordie does not index songs against artists'/composers' will. To remove this song please click here.

This song is displayed as text-only. Transposing and tuning is only available for chordpro-songs.

Login - add to songbook

Rating click stars to rate

Layout
Accuracy

SHARE PAGE  




You need to log in to post comments