Guitar Tabs, Chords and Lyrics


Tonight   Staind



Staind
Tonight
Tabbed by: ibanezgtr1492@yahoo.com
Posted by: jessman@cableone.net

Gtr. I     Mike Mushok Distorted (Rhythm)
Gtr. II    Mike Mushok Clean
Gtr. III   Mike Mushok Distorted (Lead)

   Intro:
   Gtr. I
Bb|-----(0)------(0)---(0)-----------(0)--------(0)------(0)----(0)--------|
Gb|-----(0)------(0)-----(0)---------(0)--------(0)------(0)------(0)------|
Db|-2---------5------10------10\\7-----------2---------5------10------10/12-|
Ab|-2---------5------10------10\\7-----------2---------5------10------10/12-|
Db|-2---------5------10------10\\7-----------2---------5------10------10/12-|
Ab|------------------------------------------------------------------------|


Bb|-----(0)------(0)---(0)-----------(0)--------(0)------(0)-----|
Gb|-----(0)------(0)-----(0)---------(0)--------(0)------(0)---7-|
Db|-2---------5------10------10\\7-----------2---------5--------7-|
Ab|-2---------5------10------10\\7-----------2---------5--------5-|
Db|-2---------5------10------10\\7-----------2---------5--------0-|
Ab|--------------------------------------------------------------|


   Verses:
   Gtr. II
Bb|---------------------------------------|
Gb|--------4-----------------5---------------------|
Db|----------4-5p4---------5------0----------------|
Ab|--2-------------2----3---------0----------------|
Db|--2----------------------------0----------------|
Ab|------------------------------------------------|

Bb|---------------------------------------|
Gb|--------4-----------------5---------------------|
Db|----------4-5p4---------5------0----------------|
Ab|--2-------------2----3---------0----------------|
Db|--2----------------------------0----------------|
Ab|------------------------------------------------|


Bb|---------------------------------------|
Gb|--------4-----------------5---------------------|
Db|----------4-5p4---------5------0----------------|
Ab|--2-------------2----3---------0----------------|
Db|--2----------------------------0----------------|
Ab|------------------------------------------------|

Bb|-------------------------3----------------------|
Gb|--------4----------------2----------------------|
Db|----------4-5p4----------0----------------------|
Ab|--2-------------2--------0----------------------|
Db|--2----------------------0----------------------|
Ab|------------------------------------------------|

   Chorus:
   Gtr. I
Bb|--------------------------------------------------|
Gb|--------------------------------------------------|
Db|--10-------7----------------------0---------------|
Ab|--10-------7------(2)-------------0---------------|
Db|--10-------7-------4--------------0---------------|
Ab|-------------------2------------------------------|
  |      |
  |Gtr. III   |
Bb|--5--8---3---5--(5)------------------------5---3-3----5--3--|
Gb|--x--x---x---x--(x)--4---------4----7------x---x-x----x--x--|
Db|--2--5---0---2--(2)--x---------x----x------2---0-0----2--0--|
Ab|------------------2------------2----5-----------------------|
Db|------------------------------------------------------------|
Ab|------------------------------------------------------------|

   Bridge:
   Gtr. II
Bb|-----0--------------0--------0----------|
Gb|-------0--------------0--------0--------|
Db|--9---------12----------5---------5-5\\2-|
Ab|--7---------10----------3---------3-3\\0-|
Db|----------------------------------------|
Ab|----------------------------------------|

Bb|-----------0-------------0---------0-------------|
Gb|-------------0-------------0---------0-----------|
Db|-2-----9---------12----------5---------5-5/7--7--|
Ab|-0-----7---------10----------3---------3-3/5--5--|
Db|-------------------------------------------------|
Ab|-------------------------------------------------|


Bb|-----0-----------0--------0-------------------0-----------0-----|
Gb|-------0-----------0--------0-------------------0-----------0-7-|
Db|--9---------12-------5---------5-5\\2--2----9--------12--------7-|
Ab|--7---------10-------3---------3-3\\0--0----7--------10--------5-|
Db|----------------------------------------------------------------|


Important: The song above is NOT stored on the Chordie server. The original song is hosted at www.xguitar.com. Chordie works as a search engine and provides on-the-fly formatting. Chordie does not index songs against artists'/composers' will. To remove this song please click here.

This song is displayed as text-only. Transposing and tuning is only available for chordpro-songs.

Login - add to songbook

Rating click stars to rate

Layout
Accuracy

SHARE PAGE  




You need to log in to post comments