Guitar Tabs, Chords and Lyrics


Zoe Jane   Staind



STAIND
ZOE JANE from the album
14 SHADES OF GREY
Tabbed by DAVEMYSTER

Tuning- Down 1/2 step

/-Slide
h-Hammer On

INTRO/VERSE (Gtr.1)
Eb|---------------------------------------------------------
Bb|---5-----5---------7-----7---------8-----8-----8-----8---
Gb|-----0-----0---------0-----0---------0-----0-----0-----0-
Db|--------------------------------------------------------- X 8
Ab|-3-----3-------3/5-----5-------5/7-----7-----7-----7-----
Eb|---------------------------------------------------------

CHORUS (Gtr.1)						   __
Eb|-----------------------------------------------------------------  |
Bb|------12------12------12------12-------11-----11-----11-----11---  |
Gb|---------0-------0-------0-------0--------0------0------0------0-  |
Db|-----------------------------------------------------------------  |
Ab|-7/10------10------10------10--------9------9------9------9------  |
Eb|-----------------------------------------------------------------  |
                	                                                    |- X 3
Eb|--------------------------------------------------	               |
Bb|---8-----8-----8-----8------5-----5-----5-----5---	               |
Gb|-----0-----0-----0-----0------0-----0-----0-----0-	               |
Db|--------------------------------------------------                 |
Ab|-7-----7-----7-----7------3-----3-----3-----3-----                 |
Eb|--------------------------------------------------                 |
                                                                    __|

CHORUS (Gtr.2)
Eb|---3----3----3----3-----
Bb|---3----3----3----3-----
Gb|---0----0----0----0-----
Db|---0----0----2----2----- X 3
Ab|---2----X----2----3-----
Eb|---3----2----0----------

VERSE X 4

CHORUS (Gtr.1 & 2) X 6

VERSE X 4

CHORUS (Gtr.1 ONLY) X 5

ENDING
Eb|------
Bb|-5/12-
Gb|------
Db|-----
Ab|-3/10-


Important: The song above is NOT stored on the Chordie server. The original song is hosted at www.xguitar.com. Chordie works as a search engine and provides on-the-fly formatting. Chordie does not index songs against artists'/composers' will. To remove this song please click here.

This song is displayed as text-only. Transposing and tuning is only available for chordpro-songs.

Login - add to songbook

Rating click stars to rate

Layout
Accuracy

SHARE PAGE  




You need to log in to post comments