Guitar Tabs, Chords and Lyrics


Fade   Staind



Artist: STAIND
Album: BREAK THE CYCLE
Song Title: FADE
Tabbed: Nate Patterson

GUITAR: 7 String (Recomended) *6 String tuned down low works also
but the strings vibrate too much and get a somewhat sloppy sound
so if you have a 7-String, your gonna nail this song perfect!

TUNING (from low to high) Ab, Db, Ab, Db, Gb, Bb, Eb
Dropped Half Step down all stings, Drop D on LOW E, and tune low B to Ab

^ - Hammer On/Hammer Off	/ - Slide Up	\ - Slide Down
PM - Palm Mute		~ - Vibrato

INTRO
DISTORTION
Eb--------------------------------------------------------|
Bb--------------------------------------------------------|
Gb--------------------------------------------------------|
Db-0^2--2-2--2-2-5------------0^2--2-2--2-2--5------------|
Ab-0^2--2-2--2-2-5------------0^2--2-2--2-2--5------------|
Db-0^2--2-2--2-2-5--5/7-------0^2--2-2--2-2--5--7-7--7--7-|
Ab------------------3/5-------------------------5-5--5--5-|

VERSE
CLEAN/REVERB                                                                       
Eb-------------|
Bb-------------|
Gb----0~---0~--|
Db---2-----2~--|
Ab--2--and-2~--|
Db-2-------2~--|
Ab-------------|
                                                                              
PRE-CHORUS
SLIGHT DISTORTION/FLANGE/REVERB
Eb----------------------------------------|
Bb----------------------------------------|
Gb---------4---4---5----------------------|
Db-----4/7---7---7---7--------------------|
Ab----------------------------------------|
Db-2-2-----------------5-4------0---------|
Ab-------------------------3/5----0--2/5--|
                                                                              
CHORUS
DISTORTION
Eb----------------------------------------------|
Bb----------------------------------------------|
Gb-7--7-7--7-7--7-7-7-7-7-7--5--5-5-------------|
Db-5--5-5--5-5--5-5-5-5-5-5--3--3-3--0--0-0-0-0-|
Ab-5--5-5--5-5--5-5-5-5-5-5--3--3-3--0--0-0-0-0-|
Db-5--5-5--5-5--5-5-5-5-5-5--3--3-3--0--0-0-0-0-|
Ab----------------------------------------------|
                                                                              
BRIDGE
Eb------------|
Bb------------|
Gb------------|
Db-2-2--5-----|
Ab-2-2--5-----|
Db-2-2--5--7--|
Ab---------5--|
PM__________|


Important: The song above is NOT stored on the Chordie server. The original song is hosted at www.xguitar.com. Chordie works as a search engine and provides on-the-fly formatting. Chordie does not index songs against artists'/composers' will. To remove this song please click here.

This song is displayed as text-only. Transposing and tuning is only available for chordpro-songs.

Login - add to songbook

Rating click stars to rate

Layout
Accuracy

Jango Player

SHARE PAGE  




You need to log in to post comments