Guitar Tabs, Chords and Lyrics


Open Your Eyes   Staind



Staind - Open Your Eyes
Tuning - Drop Db
Low to High - Db Ab Db Gb Bb Eb  (maybe)

Ok, I'm not sure about the tuning (as with most Staind songs i try!)
But in this tuning you can play everything except one part.

Riff I: (used for intro and some verses)
|----------------------------------------------------------------------|
|----------------------------------------------------------------------|
|----------------------------------------------------------------------|
|--12-11---12-11-------------------------------------------------------|
|--9--9----7--7--------------------------------------------------------|
|--9--9----7--7--------------------------------------------------------|

Riff II: (this is the part u can't play in this tuning, the chords are
          an octave lower sounding than what i've tabbed, but you can play
          the harmonics, maybe one guitar plays chords and other plays the
          harmonics??)
|----------------------------------------------------------------------|
|-----------------(5)--------------------(5)-----(7)-------------------|
|--------------------------------------------(5)-----------------------|
|-7-9-9---7--9-9--------7-9-9---7--9-9---------------------------------|
|-7-9-9---7--9-9--------7-9-9---7--9-9---------------------------------|
|-7-9-9---7--9-9--------7-9-9---7--9-9---------------------------------|

Chorus:
|----------------------------------------------------------------------|
|----------------------------------------------------------------------|
|----------------------------7-----------------------------------------|
|---5--5----7-7---2--2---5-5-5-- repeat -------------------------------|
|---5--5----7-7---2--2---3-3-3-----------------------------------------|
|---5--5----7-7---2--2---3---------------------------------------------|

Interlude: (make a C chord shape and use pinkie to alternate bass notes)
           (just pick random notes within these chords)
|---0---0-----------------------------0--------------------------------|
|---3---3-------------------------------3------------------------------|
|---0---0----- EX --------0---------------0----------------------------|
|---4---4---------------4---4-------4----------------------------------|
|---5---5-------------5-------5---5------------------------------------|
|---0---5-----------0-----------5-----------0--------------------------|

tabbed by zipztabs.com
Enjoy!


Important: The song above is NOT stored on the Chordie server. The original song is hosted at www.xguitar.com. Chordie works as a search engine and provides on-the-fly formatting. Chordie does not index songs against artists'/composers' will. To remove this song please click here.

This song is displayed as text-only. Transposing and tuning is only available for chordpro-songs.

Login - add to songbook

Rating click stars to rate

Layout
Accuracy

SHARE PAGE  




You need to log in to post comments