Guitar Tabs, Chords and Lyrics


Outside   Staind



Song: Outside (Studio Version)
Artist: Staind
Album: Break The Cycle (2001)

Words by Aaron Lewis
Music by Aaron Lewis and Mike Mushok
Arranged by Jeff Perin

Transcribed by Zac Crouch

Guitar 1: Standard Tuning / Half Step Down (Eb, Ab, Db, Gb, Ab, Eb)
Guitar 2,3,4: Drop D Tuning / Half Step Down (Db, Ab, Db, Gb, Ab, Eb)

 Intro
  Slow Rock Q=74

  Gtr I
|-0--0-----0---0-|-(0)----0-0-0---------|
|-0--0-0-0-0---0-|-(0)--0-0-0-0---0-----|
|-9--9-9-9-9---7-|-(7)--7---7-7-x-7-----|
|-9--9-9-9-9---7-|-(7)--7---7-7---7-5-5-|
|-7--7-7-7-7-0-5-|-(5)--5-----5-----5-5-|
|-0--0-----------|------------------3-3-|
|------0---------|--------0-------0------|
|----0-0-0-----0-|-(0)--0-0-0-0---0------|
|----x---x-----x-|-(x)--0-0-0---0-0------|
|-5--5---5-5---7-|-(7)--7-------7-7---0--|
|-5--5---3-5---7-|-(7)--7-------7-7-0-0--|
|-3--3-----3-0-5-|-(5)--5-------5-5-0----|
  Gtr II
|---------------------------|-------------------------------|
|-12----12----13-12---------|---------------12--------------|
|----------------------14---|-(14)----14-------14------14---|
|----14----14-------14------|------14----14-------14--------|
|---------------------------|-------------------------------|
|---------------------------|-------------------------------|
|
| Gtr I
|--------0--0--0--0--0------|----------0--0--0-------0------|
|--------0--0--0--0--0------|----------0--0--0-------0----0-|
|--9-----9-----------9----7-|--(7)-----7-----7-----7-7----0-|
|--9-----9-----------9----7-|--(7)-----7-----7--7--7-7------|
|--7-----7-----------7--0-5-|--(5)-----5--------5-------0---|
|---------------------------|-------------------------------|
|---------------------------|-----------------||
|----------10-(10)-------12-|-(12)------------||
|----12------------12-------|------12------12-||
|-12----12------------12----|---------9s10----||
|---------------------------|-----------------||
|---------------------------|-----------------||
|
|--------0--0-------0-----0-|--(0)------------||
|--------0--0-------0-----0-|--(0)------------||
|--------0--0-------0-----0-|--(0)------------||
|--5-----5------5---5-----7-|--(7)------------||
|--5-----5------5---5--x--7-|--(7)------------||
|--3-----3------3---3--x--5-|--(5)------------||
 Verses
  $
 4/4
|-------------------------|-------------------------------|
|-12----12----13-12-------|---------------12--------------|
|----------------------14-|-(14)----14-------14----14-----|
|----14----14-------14----|------14----14-------14--------|
|-------------------------|-------------------------------|
|-------------------------|-------------------------------|
|
| Gtr I
|--0-----0--------0-----0-|--(0)--------0--0--0-----------|
|--0-----0--0--0--0-----0-|--(0)-----0--0--0--0-----0-----|
|--9-----9--9--9--9-----7-|--(7)-----7-----7--7--x--7-----|
|--9-----9--9--9--9-----7-|--(7)-----7-----7--7-----7-5-5-|
|--7-----7--7--7--7--0--5-|--(5)-----5--------5-------5-5-|
|--0-----0----------------|---------------------------3-3-|
|---------------------------|-------------------------------|
|----------10-(10)-------12-|-(12)-----------------10-------|
|----12------------12-------|------12--------12-------12----|
|-12----12------------12----|---------9s10------10----------|
|---------------------------|-------------------------------|
|---------------------------|-------------------------------|
|
|-----------0---------------|------------0----------0-------|
|--------0--0---0---------0-|--(0)----0--0-0--0-----0-------|
|--------x------x---------x-|--(x)----0--0-0-----0--0-------|
|--5-----5------5---5-----7-|--(7)----7----------7--7----0--|
|--5-----5------3---5-----7-|--(7)----7----------7--7--0-0--|
|--3-----3----------3--0--5-|--(5)----5----------5--5--0----|
 4/4
|---------------------------|---------------------------------|
|-12----12------13-12-------|-----------------12--------------|
|------------------------14-|-(14)----14---------14------14---|
|----14----14---------14----|------14----14---------14--------|
|---------------------------|---------------------------------|
|---------------------------|---------------------------------|
|
| Gtr I
|--0-----0----------0-----0-|--(0)----------0--0--0-----------|
|--0-----0----0--0--0-----0-|--(0)-----0----0--0--0----0------|
|--9-----9----9--9--9-----7-|--(7)-----7-------7--7--x-7------|
|--9-----9----9--9--9-----7-|--(7)-----7-------7--7----7--5-5-|
|--7-----7----7--7--7--0--5-|--(5)-----5----------5-------5-5-|
|--0-----0------------------|-----------------------------3-3-|
|-----------------------------|--------------------------------|
|----------10---(10)-------12-|-(12)-------------------10------|
|----12--------------12-------|------12--------12---------12---|
|-12----12--------------12----|---------9s10--------10---------|
|-----------------------------|--------------------------------|
|-----------------------------|--------------------------------|
|
|-------------0---------------|--------------0----------0------|
|--------0----0---0---------0-|--(0)----0----0--0-0-----0------|
|--------x--------x---------x-|--(x)----0----0--0----0--0------|
|--5-----5--------5---5-----7-|--(7)----7------------7--7----0-|
|--5-----5--------3---5-----7-|--(7)----7------------7--7--0-0-|
|--3-----3------------3--0--5-|--(5)----5------------5--5--0---|
 4/4
|---------------------------|---------------------------------|
|-12----12------13-12-------|-----------------12--------------|
|------------------------14-|-(14)----14---------14------14---|
|----14----14---------14----|------14----14---------14--------|
|---------------------------|---------------------------------|
|---------------------------|---------------------------------|
|
| Gtr I
|--0-----0----------0-----0-|--(0)----------0--0--0-----------|
|--0-----0----0--0--0-----0-|--(0)-----0----0--0--0----0------|
|--9-----9----9--9--9-----7-|--(7)-----7-------7--7--x-7------|
|--9-----9----9--9--9-----7-|--(7)-----7-------7--7----7--5-5-|
|--7-----7----7--7--7--0--5-|--(5)-----5----------5-------5-5-|
|--0-----0------------------|-----------------------------3-3-|
|-----------------------------|--------------------------------|
|----------10---(10)-------12-|-(12)-------------------10------|
|----12--------------12-------|------12--------12---------12---|
|-12----12--------------12----|---------9s10--------10---------|
|-----------------------------|--------------------------------|
|-----------------------------|--------------------------------|
|
|-------------0---------------|--------------0----------0------|
|--------0----0---0---------0-|--(0)----0----0--0-0-----0------|
|--------x--------x---------x-|--(x)----0----0--0----0--0------|
|--5-----5--------5---5-----7-|--(7)----7------------7--7----0-|
|--5-----5--------3---5-----7-|--(7)----7------------7--7--0-0-|
|--3-----3------------3--0--5-|--(5)----5------------5--5--0---|
  Gtr II
|---------------------------|-------------------------------|
|-12----12----13-12---------|---------------12--------------|
|----------------------14---|-(14)----14-------14------14---|
|----14----14-------14------|------14----14-------14--------|
|---------------------------|-------------------------------|
|---------------------------|-------------------------------|
|
| Gtr I
|--------0--0--0--0--0------|----------0--0--0-------0------|
|--------0--0--0--0--0------|----------0--0--0-------0----0-|
|--9-----9-----------9----7-|--(7)-----7-----7-----7-7----0-|
|--9-----9-----------9----7-|--(7)-----7-----7--7--7-7------|
|--7-----7-----------7--0-5-|--(5)-----5--------5-------0---|
|---------------------------|-------------------------------|
|---------------------------|-----------------||
|----------10-(10)-------12-|-(12)------------||
|----12------------12-------|------12------12-||
|-12----12------------12----|---------9s10----||
|---------------------------|-----------------||
|---------------------------|-----------------||
|
|--------0--0-------0-----0-|--(0)------------||
|--------0--0-------0-----0-|--(0)------------||
|--------0--0-------0-----0-|--(0)------------||
|--5-----5------5---5-----7-|--(7)------------||
|--5-----5------5---5--x--7-|--(7)------------||
|--3-----3------3---3--x--5-|--(5)------------||
   Chorus
    Gtr III
||-----------------------|---------------------|
||o----------------------|---------------------|
||-----------------------|----7-------5\-------|
||--2--2---(2)---2-----5-|-5------9------------|
||o-2--2---(2)---2-x---5-|-5-------------------|
||--2--2---(2)---2-x---5-|-5----5---5----------|
|
|   Gtr I
||--0--0-0--0--0-0-0-0-0-|-3--3-3-3-3-3--3-3-3-|
||o-0--0-0--0--0-0-0-0-0-|-3--3-3-3-3-3--3-3-3-|
||--1--1-1--1--1-1-1-1-1-|-0--0-0-0-0-0--0-0-0-|
||--2--2-2--2--2-2-2-2-2-|-0--0-0-0-0-0--0-0-0-|
||o-2--2-2--2--2-2-2-2-2-|-x--x-x-x-x-x--x-x-x-|
||--0--0-0--0--0-0-0-0-0-|-3--3-3-3-3-3--3-3-3-|
                                       To Coda
  Gtr III
|-----------------------|------------------------||
|-----------------------|-----0---1p0-----------o||
|-----------------------|-2-----------2p0--------||
|-0---0---(0)---0-------|-2----------------------||
|-0---0---(0)---0-------|-0---------------------o||
|-0---0---(0)---0-2-2---|---2---2----------------||
|
| Gtr I
|-0-0-0-0--0--0-0-0-0-0-|-0-0-0-0-0-0-0-0-0-0-0--||
|-3-3-3-3--3--3-3-3-3-3-|-0-0-0-0-0-0-0-0-0-0-0-o||
|-2-2-2-2--2--2-2-2-2-2-|-2-2-2-2-2-2-2-2-2-2-2--||
|-0-0-0-0--0--0-0-0-0-0-|-2-2-2-2-2-2-2-2-2-2-2--||
|-----------------------|-0-0-0-0-0-0-0-0-0-0-0-o||
|-----------------------|------------------------||
                                                               D.S. al Coda
  Gtr III
|------------------|------------------------|-------------------|-----------||
|------------------|------------------------|-------------------|-----------||
|------------------|------------------------|-----7-------5-----|-----------||
|-2--2---(2)-2-2-0-|-(0)--0---(0)---0-0-0---|-5-------9-----7---|-(7)-------||
|-2--2---(2)-2-2-0-|-(0)--0---(0)---0-0-0---|-5-------------7---|-(7)-------||
|-2--2---(2)-2-2-0-|-(0)--0---(0)---0-0-0---|-5-----5---5---7---|-(7)-------||
|
| Gtr I
|-0--0-0--0--0-0-0-|-(0)--0-0--0--0-0-0-----|-0-0-0-0-0-0-0-0-0-|-(0)-------||
|-0--0-0--0--0-0-0-|-(0)--0-0--0--0-0-0-----|-0-0-0-0-0-0-0-0-0-|-(0)-------||
|-9--9-9--9--9-9-7-|-(7)--7-7--7--7-7-7-----|-x-x-x-x-x-x-x-x-0-|-(0)-------||
|-9--9-9--9--9-9-7-|-(7)--7-7--7--7-7-7-5-5-|-5-5-5-5-5-5-5-5-7-|-(7)-------||
|-7--7-7--7--7-7-5-|-(5)--5-5--5--5-5-5-5-5-|-5-5-5-5-5-5-5-5-7-|-(7)-------||
|-0----------------|--------------------3-3-|-3-3-3-3-3-3-3-3-5-|-(5)-------||
 Interlude
  &
  Gtr IV
|-------------------------------|------------------------------|
|-------------------------------|------------------------------|
|-13--13--13-13-13--13-11-13-14-|-(14)S==7---7-7-11--9-7-7-9---|
|--x---x---x--x--x---x--x--x--x-|--(x)S==x---x-x--x--x-x-x-x---|
|-11--11--11-11-11--11--9-11-12-|-(12)S==5---5-5--9--7-5-5-7---|
|-------------------------------|------------------------------|
|
| Gtr III
|-------------------------------|------------------------------|
|--------------------5----------|------------------------------|
|--------------------4----------|------------------------------|
|-14-(14)S=2----(2)--2--0-12----|-(12)-(12)\-0---(0)---0-0-0---|
|-14-(14)S=2----(2)-----0-12----|-(12)-(12)\-0---(0)---0-0-0---|
|-14-(14)S=2----(2)-------12----|-(12)-(12)\-0---(0)---0-0-0---|
|
| Gtr I
|--0-------0---------0-----0----|--(0)---------0--0--0---------|
|--0-------0--0--0---0-----0----|--(0)-------0-0--0--0---0-----|
|--9-------9--9--9---9-----7----|--(7)-------7----7--7-x-7-----|
|--9-------9--9--9---9-----7----|--(7)-------7----7--7---7-5-5-|
|--7-------7--7--7---7--0--5----|--(5)-------5-------5-----5-5-|
|--0-------0--------------------|--------------------------3-3-|
                                                     Bridge
  Gtr IV
|---------------------|---------------------------||--------------------------|
|---------------------|---------------------------||o-------------------------|
|-9--7---(7)S11-9-7-9-|--9--9-9-9-9-9-9-9-9-9-9---||--------------------------|
|-x--x---(x)S=x-x-x-x-|--x--x-x-x-x-x-x-x-x-x-x---||--------------------------|
|-7--5---(5)S=9-7-5-7-|--7--7-7-7-7-7-7-7-7-7-7---||o-------------------------|
|---------------------|---------------------------||--------------------------|
|
| Gtr III
|---------------------|---------------------------||--------------------------|
|-------------------0-|-(0)-----0-----1---0-------||o-----------------5-------|
|----7------------5-2-|-(2)-----------------2-0---||------------------4-------|
|-5-----------9-----2-|-(2)-----------------------||--14-(14)S2---(2)-2-0-12--|
|-5-----------------0-|-(0)-----------------------||o-14-(14)S2---(2)---0-12--|
|-5----5--------5-----|-------2---2---------------||--14-(14)S2---(2)-----12--|
|
| Gtr I
|---------0-----------|-------------0-------0-----||---0------0-------0----0--|
|----0----0---0-----0-|-(0)-----0---0-0-0---0-----||o--0------0-0--0--0----0--|
|----x--------x-----x-|-(x)-----0---0-0---0-0-----||---9------9-9--9--9----7--|
|-5--5--------5-5---7-|-(7)-----7---------7-7---0-||---9------9-9--9--9----7--|
|-5--5--------3-5---7-|-(7)-----7---------7-7-0-0-||o--7------7-7--7--7-0--5--|
|-3--3----------3-0-5-|-(5)-----5---------5-5-0---||---0------0---------------|
  Gtr III
|-----------------------------|----------------|------------------------||
|-----------------------------|--------------0-|-(0)---0---1-0---------o||
|-----------------------------|----7-------5-2-|-(2)-----------2-0------||
|-(12)-(12)S0---(0)---0-0-0---|-5------9-----2-|-(2)--------------------||
|-(12)-(12)S0---(0)---0-0-0---|-5------------0-|-(0)-------------------o||
|-(12)-(12)S0---(0)---0-0-0---|-5----5---5-----|-----2---2--------------||
|
| Gtr I
|--(0)--------0--0--0---------|------0---------|---------0-------0------||
|--(0)------0-0--0--0---0-----|----0-0-0-----0-|-(0)---0-0-0-0---0-----o||
|--(7)------7----7--7-x-7-----|----x---x-----x-|-(x)---0-0-0---0-0------||
|--(7)------7----7--7---7-5-5-|-5--5---5-5---7-|-(7)---7-------7-7---0--||
|--(5)------5-------5-----5-5-|-5--5---3-5---7-|-(7)---7-------7-7-0-0-o||
|-------------------------3-3-|-3--3-----3-0-5-|-(5)---5-------5-5-0----||
  Gtr I
|--0----0-----0----0-|--(0)--------0--0--0---------|
|--0----0-0-0-0----0-|--(0)------0-0--0--0---0-----|
|--9----9-9-9-9----7-|--(7)------7----7--7-x-7-----|
|--9----9-9-9-9----7-|--(7)------7----7--7---7-5-5-|
|--7----7-7-7-7-0--5-|--(5)------5-------5-----5-5-|
|--0----0------------|-------------------------3-3-|
|
| Gtr III
|--------------------|-----------------------------|
|-------------5------|-----------------------------|
|-------------4------|-----------------------------|
|-14-14-2---2-2-0-12-|-(12)-(12)S0---(0)---0-0-0---|
|-14-14-2---2---0-12-|-(12)-(12)S0---(0)---0-0-0---|
|-14-14-2---2-----12-|-(12)-(12)S0---(0)---0-0-0---|
|------0---------|---------0-------0-----|
|----0-0-0-----0-|-(0)---0-0-0-0---0-----|
|----x---x-----x-|-(x)---0-0-0---0-0-----|
|-5--5---5-5---7-|-(7)---7-------7-7---0-|
|-5--5---3-5---7-|-(7)---7-------7-7-0-0-|
|-3--3-----3-0-5-|-(5)---5-------5-5-0---|
|
|----------------|-----------------------|
|----------------|-------0---1p0---------|
|----7-------5-2-|-(2)-----------2-0-----|
|-5------9-----2-|-(2)-------------------|
|-5------------0-|-(0)-------------------|
|-5--------------|-----2---2-------------|
  Gtr II
|---------------------------|-------------------------------|
|-12----12----13-12---------|---------------12--------------|
|----------------------14---|-(14)----14-------14------14---|
|----14----14-------14------|------14----14-------14--------|
|---------------------------|-------------------------------|
|---------------------------|-------------------------------|
|
| Gtr I
|--------0--0--0--0--0------|----------0--0--0-------0------|
|--------0--0--0--0--0------|----------0--0--0-------0----0-|
|--9-----9-----------9----7-|--(7)-----7-----7-----7-7----0-|
|--9-----9-----------9----7-|--(7)-----7-----7--7--7-7------|
|--7-----7-----------7--0-5-|--(5)-----5--------5-------0---|
|---------------------------|-------------------------------|
|---------------------------|-----------------||
|----------10-(10)-------12-|-(12)------------||
|----12------------12-------|------12------12-||
|-12----12------------12----|---------9s10----||
|---------------------------|-----------------||
|---------------------------|-----------------||
|
|--------0--0-------0-----0-|--(0)------------||
|--------0--0-------0-----0-|--(0)------------||
|--------0--0-------0-----0-|--(0)------------||
|--5-----5------5---5-----7-|--(7)------------||
|--5-----5------5---5--x--7-|--(7)------------||
|--3-----3------3---3--x--5-|--(5)------------||
 Outro-Chorus
  Gtr I
|-0--0-0-0-0-0-0-----|-3--3-3-3-3-3-3-3-3-x-|
|-0--0-0-0-0-0-0-3-3-|-3--3-3-3-3-3-3-3-3-x-|
|-1--1-1-1-1-1-1-0-0-|-0--0-0-0-0-0-0-0-0-x-|
|-2--2-2-2-2-2-2-0-0-|-0--0-0-0-0-0-0-0-0-x-|
|-2--2-2-2-2-2-2-----|-x--x-x-x-x-x-x-x-x-x-|
|-0--0-0-0-0-0-0-----|-3--3-3-3-3-3-3-3-3-x-|
|----0-0-0-0-0-----0-|-(0)---0-0-0-0-0-0-0-0-----|-0--0-0-0-0-0-0-----3-|
|-3--3-3-3-3-3-0-0-0-|-(0)-0-0-0-0-0-0-0-0-0-----|-0--0-0-0-0-0-0-----3-|
|-2--2-2-2-2-2-0-0-2-|-(2)---2-2-2-2-2-2-2-2---0-|-1--1-1-1-1-1-1-0-0-0-|
|-0--0-0-0-0-0-0-0-2-|-(2)---2-2-2-2-2-2-2-2-0-0-|-2--2-2-2-2-2-2-0-0-0-|
|------------------0-|-(0)---0-0-0-0-0-0-0-0-0---|-2--2-2-2-2-2-2-----x-|
|--------------------|---------------------------|-0--0-0-0-0-0-0-----3-|
|-(3)-----3-3-3-3-3-3-3-0-|-2--2-2-2-2-2-----0-|-(0)----*|
|-(3)-3-3-3-3-3-3-3-3-3-0-|-3--3-3-3-3-3-0-0-0-|-(0)----*|
|-(0)-0-0-0-0-0-0-0-0-0-0-|-2--2-2-2-2-2-0-0-2-|-(2)----*|
|-(0)---0-0-0-0-0-0-0-0---|-0--0-0-0-0-0-0-0-2-|-(2)----*|
|-(x)---x-x-x-x-x-x-x-x---|------------------0-|-(0)----*|
|-(3)---3-3-3-3-3-3-3-3---|--------------------|--------*|


Important: The song above is NOT stored on the Chordie server. The original song is hosted at www.xguitar.com. Chordie works as a search engine and provides on-the-fly formatting. Chordie does not index songs against artists'/composers' will. To remove this song please click here.

This song is displayed as text-only. Transposing and tuning is only available for chordpro-songs.

Login - add to songbook

Rating click stars to rate

Layout
Accuracy

SHARE PAGE  




You need to log in to post comments

jpd555 (report)

Wow, how many guitarist does it take to play "outside" ?
I seen them play this with only Aaron and Mike on guitars at the HOB's in 2005.
I do like the tab on the lead/arpeggio